» » »

Larry And His Flask, Flags And Concrete Chords (ver.1)

Artists:  A B C D E F G H I J K L M N O P Q R S T U V W X Y Z # 

Flags And Concrete Chords (ver.1)

Larry And His Flask Tabs
Rating:
5/5 (1 vote)
Flags And Concrete lessons Tabs too difficult? Try these video lessons and learn fast
                -------------------------------------------------------------------------------
-------------------------------------------------------------------------------


Tuning: Standard CAPO II


INTRO:
Bm     x4

Bm  A  G  F#    x2

VERSE:
Bm                                            F#
All this twisted steel has got us rusted up inside
Bm                                             F#
Contorted and aborted we were forced to live a lie
        Em                                    G      Bm
We can feel it in our bones and see it in our broken homes

Bm                                           F#
Ask me what you want and therefore you shall receive
Bm                              F#
For an army of assassins and a hand full of beans
Em                                             G    F#                      
I'll sell you what you need is a flag and some more concrete


CHORUS:
   G           A        Bm
So who's gonna take the wheel
     Bm                   A           G
this isn't they way we're supposed to feel
C           F#          G                   Bm A G F#
first world loss, it's time that we pay the cost

 Riff
e|------------------------|
B|------------------------|
G|------------------------|
D|------------0-----------|
A|---2p0--------4-2-1-----|
E|-------3p2--------------|


VERSE:
Bm                                             F#
The smoke is so thick that I can barely suck it in

So this is what it's like living on this side of dim
      Em                         G         F#         Bm
Silent devils in our dreams and somehow we feel their screams

         Bm                                          F#
Feel the fourteen million grains of the white desert sand
Bm                                       F#
Scoop it all up and let it fall from your hand
             Em                                G        F#
there's some meaning here but I'm not sure you'll understand
         G  F#               
what I'm saying - and I'm bleeding 
      Bm                       G      G    F#    
we're all slowly dying from ourselves woah-oh

SOLO:
Bm A G F#   x4

Bm

e|--------------------------------------|
B|----------------------------3~-3~-3~--|
G|-----4---4-----4-----4-------6~-6~-6~-|
D|-2h4---4---4-2---2-0------------------|
A|-----------------------4-2~-----------|
E|--------------------------------------|    x4



CHORUS:
   G           A        Bm
So who's gonna take the wheel
     Bm                   A           G
this isn't they way we're supposed to feel
C           F#          G                   Bm A G F#
first world loss, it's time that we pay the cost

   G         A         Bm
So who of us still can see
      Bm        A          G
This isn't the way it's supposed to be
C        F#         G                   Bm A G F#
Drink it down, it's time we got out of town

 Riff
e|------------------------|
B|------------------------|
G|------------------------|
D|------------0-----------|
A|---2p0--------4-2-1-----|
E|-------3p2--------------|     x4

F#  Bm

END!!!
            
Submit corrections

comments powered by Disqus
↑ Back to top | Larry And His Flask Chords for Flags And Concrete. Lyrics for acoustic guitar and electric guitar. Tablatures and chords are parodies/interpretations of the original songs. You may use it for private study, scholarship, research or language learning purposes only