» » »

Larrikin Love, Six Queens Bass tabs (ver.1)

Artists:  A B C D E F G H I J K L M N O P Q R S T U V W X Y Z # 

Six Queens Bass tabs (ver.1)

Larrikin Love Tabs
 Rating:
3.8/5 (5 votes)
Six Queens lessons Tabs too difficult? Try these video lessons and learn fast
1
                ----------------------------------------------------------------------------
----------------------------------------------------------------------------


Tuning: Standard

Intro
G|-------------|-------------|-------------|-------------|
D|-------------|-------------|-------------|-------------|
A|-------------|-------------|-------------|-------------|
E|-(1)----0-0--|-(1)-----0---|-(1)----0-0--|-(1)-----0---|

   (when playing the F (1) in the intro its best not to actually play it but to mute the 
string as close to the nut as you can to get a smiliar effect as on the record)

  Im the sixth queen...
G|-------------|-------------|-------------|-------------|
D|-------------|-------------|-------------|-------------|
A|--------2-2--|-------------|--------2-2--|-------------|
E|--0--0-------|--0--0--3-1--|--0--0-------|--0--0--3-1--|

G|-------------|-------------|-------------|-------------|
D|-------------|-------------|-------------|-------------|
A|--------2-2--|-------------|--------2-2--|-------------|
E|--0--0-------|--0--0--3-1--|--0--0-------|--0000-0000--|


G|-------------|-------------|-------------|-------------|
D|--------2-2--|-------------|--------2-2--|-------------|
A|--0--0-------|--0--0--3-1--|--0--0-------|--0--0--3-1--|
E|-------------|-------------|-------------|-------------|

G|-------------|-------------|-------------|-------------|
D|-------------|-------------|-------------|-------------|
A|--------2-2--|-------------|--------2-2--|-------------|
E|--0--0-------|--0--0--3-1--|--0--0-------|--0--0--3-1--|

   Theres a symphony in my heart..
G|-------------|-------------|-------------|-------------|
D|-------------|-------------|-------------|-------------|
A|--55-5--55-5-|-------------|--------2-2--|-------------|
E|-------------|--55-5--55-5-|--0--0-------|--0--0--3-1--|

G|-------------|-------------|-------------|-------------|
D|-------------|-------------|-------------|-------------|
A|--------222--|-------------|--55-5--55-5-|-------------|
E|--0--0-------|--0--0--3-1--|-------------|--55-5--55-5-|

G|-------------|-------------|-------------|-------------|
D|-------------|-------------|-------------|-------------|
A|--------2-2--|-------------|--------2-2--|-------------|
E|--0--0-------|--0--0--3-1--|--0--0-------|-0--0---3-1--|


G|-------------|-------------|-------------|-------------|
D|-------------|-------------|-------------|-------------|
A|-------------|-------------|-------------|-------------|
E|-(1)----0-0--|-(1)-----0---|-(1)----0-0--|-(1)-----0---|

  i've got secrets...
G|-------------|-------------|-------------|-------------|
D|-------------|-------------|-------------|-------------|
A|--------2-2--|-------------|--------2-2--|-------------|
E|--0--0-------|--0--0--3-1--|--0--0-------|--0--0--3-1--|

G|-------------|-------------|-------------|-------------|
D|-------------|-------------|-------------|-------------|
A|--------2-2--|-------------|--------2-2--|-------------|
E|--0--0-------|--0--0--3-1--|--0--0-------|--0000-0000--|


G|-------------|-------------|-------------|-------------|
D|--------2-2--|-------------|--------2-2--|-------------|
A|--0--0-------|--0--0--3-1--|--0--0-------|--0--0--3-1--|
E|-------------|-------------|-------------|-------------|

G|-------------|-------------|-------------|-------------|
D|-------------|-------------|-------------|-------------|
A|--------2-2--|-------------|--------2-2--|-------------|
E|--0--0-------|--0--0--3-1--|--0--0-------|--0--0--3-1--|

   Theres a symphony in my heart..
G|-------------|-------------|-------------|-------------|
D|-------------|-------------|-------------|-------------|
A|--55-5--55-5-|-------------|--------2-2--|-------------|
E|-------------|--55-5--55-5-|--0--0-------|--0--0--3-1--|

G|-------------|-------------|-------------|-------------|
D|-------------|-------------|-------------|-------------|
A|--------222--|-------------|--55-5--55-5-|-------------|
E|--0--0-------|--0--0--3-1--|-------------|--55-5--55-5-|

G|-------------|-------------|-------------|-------------|
D|-------------|-------------|-------------|-------------|
A|--------2-2--|-------------|--------2-2--|-------------|
E|--0--0-------|--0--0--3-1--|--0--0-------|-0--0---3-1--|


G|-------------|-------------|---------------|
D|-----6-------|--6-6--9-7-6-|-----6---------|
A|--7-----8--7-|-------------|--7----875-7-7-|   X3
E|-------------|-------------|---------------|

   Theres a symphony in my heart..
G|-------------|-------------|-------------|-------------|
D|-------------|-------------|-------------|-------------|
A|--55-5--55-5-|-------------|--------2-2--|-------------|
E|-------------|--55-5--55-5-|--0--0-------|--0--0--3-1--|

G|-------------|-------------|-------------|-------------|
D|-------------|-------------|-------------|-------------|
A|--------222--|-------------|--55-5--55-5-|-------------|
E|--0--0-------|--0--0--3-1--|-------------|--55-5--55-5-|

G|-------------|-------------|-------------|-------------|
D|-------------|-------------|-------------|-------------|
A|--------2-2--|-------------|--------2-2--|-------------|
E|--0--0-------|--0--0--3-1--|--0--0-------|-0--0---3-1--|

G|-------------|-------------|-------------|-------------|---|
D|-------------|-------------|-------------|-------------|---|
A|-------------|-------------|-------------|-------------|---|
E|-(1)----0-0--|-(1)-----0---|-(1)----0-0--|-(1)-----0---|-0-|

| /  slide up
| \  slide down
| h  hammer-on
| p  pull-off
| ~  vibrato
| +  harmonic
| x  Mute note
============================================================================
            
Submit corrections

comments powered by Disqus
↑ Back to top | Larrikin Love Bass for Six Queens. Lyrics for acoustic guitar and electric guitar. 1 Tablatures and chords are parodies/interpretations of the original songs. You may use it for private study, scholarship, research or language learning purposes only