» » »

Silver Tabs (ver.1)

Artists:  A B C D E F G H I J K L M N O P Q R S T U V W X Y Z # 

Silver Tabs (ver.1)

Larrikin Love
Rating:
0/5 (0 votes)

Hard to play? Try these video lessons and learn fast.
                It's quite easy song to play, but if you have doubts, feel free to comment. Larrikins forever xx


Intro/verse:
e-|-----------------------------------------------|
B-|-----------------------------------------------|
G-|-------------------------0-2-0-------0--2p-----| 
D-|----------0-2-0--------2------------------2p---|   
A-|--------2--------3-3-3-------------------------|
E-|--3-3-3------------------------3-3-3---------3-|


And then barre chords 
G Am C slide to D again G 
and then play this riff:


A-|------------------------|
E-|-0-3-0-3ph-3ph----------|  (Listen to the song to get a riff)


Chorus:
G Cm played in ska pattern

Repeat verse and chorus  (Unfortunately I haven't made out solo yet)
then again verse
and then play this notes:

e-|---------------|
B-|---------------|
G-|-5-3---0-------|
D-|---------3-1---|
A-|---------------|
E-|---------------|
 

Ending (with heavy distortion)
 G  Am C 
 G  C s/ D G


That's all, hope you enjoyed.
            
Hard to play? Try these video lessons and learn fast. | Correct




comments powered by Disqus
↑ Back to top | Tablatures and chords are parodies/interpretations of the original songs. You may use it for private study, scholarship, research or language learning purposes only