>
 >
On Sussex Downs

On Sussex Downs Bass Tabs

Larrikin Love - On Sussex Downs chords, tabs, tablatures, lyrics

Guitar lessons | Add/correct | Request | Top 50 tabs Artists:  A B C D E F G H I J K L M N O P Q R S T U V W X Y Z 0-9

On Sussex Downs Bass Tabs – Larrikin Love

CD, Sheet music, Poster

Do you like On Sussex Downs? Share with your friends now
Bass TabsTabs
----------------------------------------------------------------------------
		       On Sussex Downs - Larrkin Love
----------------------------------------------------------------------------


Tuning: Standard

G|-----------------|-----------------|------------------|----7------------|
D|-----------------|-----------------|------------------|-----------------|
A|--7--7-----------|--5--5-----------|--7---------------|--5--------------|
E|-----------5--5--|---------3--3-2--|---------5--------|--------3-33-2-2-|
                        
G|-----------------|----7------------|------------------|-----------------|
D|-----------------|-----------------|---------2----4---|---------2----4--|
A|--7--------------|--5--------------|--2---------------|--2--------------|
E|---------5-------|-------3-33--2---|------------------|-----------------|

G|-----------------|--4--------------|------------------|-----------------|
D|--------2-----4--|--------2----4---|------------------|-----------------|
A|--2--------------|-----------------|--7-7-77----------|--5-5-55---------|
E|-----------------|-----------------|---------5-5-5555-|---------3-33-22-|

G|-----------------|-----------------|------------------|-4---------------|
D|-----------------|-----------------|---------2----4---|---------2----4--|
A|-7-7-77----------|--5-5-55---------|--2---------------|--2--------------|
E|--------5-5-5555-|---------3-33-2--|------------------|-----------------|

G|-----------------|-4---------------|------------------|-----------------|
D|--------2-----4--|--------2----4---|------------------|-----------------|
A|-----2-----------|--2--------------|--7-7-77----------|--5-5-55---------|
E|-----------------|-----------------|---------5-5-5555-|---------3-33-22-|

G|-----------------|-----------------|------------------|-----------------|
D|-----------------|-----------------|---------2----4---|--------2----4---|
A|-7-7-77----------|--5-5-55---------|--2---------------|--2--------------|
E|--------5-5-5555-|---------3-33-2--|------------------|-----------------|

G|-----------------|-4---------------|------------------|--4--------------|
D|--------2-----4--|--------2----4---|---------2----4---|--------2----4---|
A|--2--------------|--2--------------|-2----------------|-2---------------|
E|-----------------|-----------------|------------------|-----------------|

G|----------------|-4--------------|------------------|-------------------|
D|--------2----4--|--------2----4--|---------2-2-2-4-4|--------2-2-2-4-2-4|
A|--2-------------|--2-------------|--2-22------------|-2-2-22------------|
E|----------------|----------------|------------------|-------------------|

G|----------------|-------------------|------4--6--4----------------------|
D|-------2-2-2-4-4|--------2-2-2-4-2-4|--------------2-----2--4--2--4--4--|
A|2-2-22----------|-2-2-22------------|---2-------------------------------|
E|----------------|-------------------|-----------------------------------|

G|---4--------------------------------|------4--6--4----------------------|
D|------------------------------------|--------------2-----2--4--2--4--4--|
A|-----2--4--2------------------------|---2-------------------------------|
E|-------------0-----0--2--0--2--2----|-----------------------------------|

G|---4--------------------------------|------4--6--4----------------------|
D|------------------------------------|--------------2-----2--4--2--4--4--|
A|-----2--4--2------------------------|---2-------------------------------|
E|-------------0-----0--2--0--2--2----|-----------------------------------|

G|---4--------------------------------|------4--6--4----------------------|
D|------------------------------------|--------------2-----2--4--2--4--4--|
A|-----2--4--2------------------------|---2-------------------------------|
E|-------------0-----0--2--0--2--2----|-----------------------------------|

G|---4--------------------------------|-----------------------------------|
D|------------------------------------|-------4---------------2-----------|
A|-----2--4--2------------------------|---2-----------4---0-----------4---|
E|-------------0-----0--2--0--2--2----|-----------2---------------2-------|

G|------------------------------------|-----------------------------------|
D|-------4---------------2------------|-------4---------------2-----------|
A|---2-----------4---0-----------4----|---2-----------4---0-----------4---|
E|-----------2---------------2--------|-----------2---------------2-------|

G|------------------------------------|
D|-------4---------------2------------|
A|---2-----------4---0-----------4----|
E|-----------2---------------2--------|

G|------------------------------------|
D|------------------------------------|
A|---2---------------2----------------|   X 4
E|-----2--5-5--2-------2--5-5--2------|

G|-----------------|-----------------|------------------|-4---------------|
D|--------2-----4--|--------2----4---|---------2----4---|--------2----4---|
A|--2--------------|--2--------------|-----2------------|--2--------------|
E|-----------------|-----------------|------------------|-----------------|

G|-----------------|-----------------|------------------|-----------------|
D|-----------------|-----------------|------------------|-----------------|
A|-7-7-77----------|--5-5-55---------|-7-7-77-----------|--5-5-55---------|
E|--------5-5-5555-|---------3-33-22-|--------5-5-5555--|---------3-33-2--|

G|-----------------|-----------------|------------------|-4---------------|
D|--------2-----4--|--------2----4---|---------2----4---|--------2----4---|
A|--2--------------|--2--------------|-----2------------|--2--------------|
E|-----------------|-----------------|------------------|-----------------|

| /  slide up
| \  slide down
| h  hammer-on
| p  pull-off
| ~  vibrato
| +  harmonic
| x  Mute note
============================================================================





Comments


Popular Larrikin Love tabs & chords
Forever Untitled Bass Tabs
Happy As Annie Bass Tabs
Downing Street Kindling Chords
Edwould Chords
Downing Street Kindling Tabs
Happy As Annie Tabs
Meet Me By The Getaway Car 2 Tabs
Charity Ukulele
Forever Untitled Ukulele
Raggedy Anne Ukulele


Song lyrics



↑ Back to top | Tablatures and chords are parodies/interpretations of the original songs. You may use it for private study, scholarship, research or language learning purposes only
© 2014 AZChords.com Contact us | Privacy policy | DMCA | Add/correct tabs | Request tabs | Top 50 tabs