» » »

Happy As Annie Bass tabs (ver.1)

Artists:  A B C D E F G H I J K L M N O P Q R S T U V W X Y Z # 

Happy As Annie Bass tabs (ver.1)

Larrikin Love
Rating:
4/5 (1 vote)

Hard to play? Try these video lessons and learn fast.
                Larrikin Love - Happy as Annie Bass Tab

Intro
G----------------------------|
D----------------------------|
A----------------------------|
E---5----5----5----5---------|

Verse
G--------------------------------------------|
D-------9---9---9---9---7---7---7---7--------|
A--7-9---9---9---9---9---7---7---7---7-------|
E--------------------------------------------|

Prechorus
G-----------------------------|
D--7-------9------------------|
A----7--9----9--9-------------|
E--------9--------0-2-4-------|

Chorus/Outro
G-------------------------------|
D-------------------------------|
A------------------9------------|
E-5--5--2--2--7--7---0-2-4------|

Interlude
G------------------------------------------------------------------------|
D------------------------------------------------------------------------|
A-0--4--5--9--0--4--5--9--0--0--4--4--5--5--9--9--0--0--4--4--5--5--9--9-|
E -----------------------------------------------------------------------|

End on an A
G--
D--
A--
E-5

Intro
Verse x7
Prechorus x2
Chorus x2
Verse x3
Interlude x1
Prechorus x2
Chorus x2
Outro x2

Great song. This is a really simple bass part, it gives the rhythm section a great, 
feel. This tab is flawless by the way.
            
Hard to play? Try these video lessons and learn fast. | Correct




comments powered by Disqus
↑ Back to top | Tablatures and chords are parodies/interpretations of the original songs. You may use it for private study, scholarship, research or language learning purposes only