» » »

Larrikin Love, Forever Untitled Bass tabs (ver.1)

Artists:  A B C D E F G H I J K L M N O P Q R S T U V W X Y Z # 

Forever Untitled Bass tabs (ver.1)

Larrikin Love Tabs
Rating:
5/5 (1 vote)
Forever Untitled lessons Tabs too difficult? Try these video lessons and learn fast
                
this is my first tab, be kind..

bass comes in same time as vocals

main riff (verse)

G-------5h7-------|
D-----------7--3--|     x4
A--3--------------|
E-----------------|

chorus (av been blinckin at the news)

G---------------------------------|
D--5-5-5-5-5-5-5-5-----10-12-/7---|      x2
A------------------7--------------|
E---------------------------------|


pre verse (joined in with trumpet)

G------5-7-5---5-5-4---2-4-5---|
D--5---------------------------|
A------------------------------|
E------------------------------|

verse (oh come all you people...)

G-------5h7-------|
D-----------7--3--|     x4
A--3--------------|
E-----------------|

chorus (av been blinckin at the news)

G---------------------------------|
D--5-5-5-5-5-5-5-5-----10-12-/7---|      x2
A------------------7--------------|
E---------------------------------|

main riff ( theres a boil on my heart..)

G-------5h7-------|
D-----------7--3--|     x4
A--3--------------|
E-----------------|

(theres a boil on my heart...)

G----------------------|
D--------0-2-3--3-3-5--|    x4
A--3--3-3--------------|
E----------------------|

(theres a boil on my heart...)

G----------------------|
D--------5-4-3--3-3-5--|    x4
A--3--3-3--------------|
E----------------------|

(this is the story of how...)

G---------------------------------|
D--5-------------------10-12-/7---|      x2
A------------------7--------------|
E---------------------------------|

(im sorry..)

G----------------------|
D--------5-4-3--3-3-5--|    x8
A--3--3-3--------------|
E----------------------|

thats it (I think)

enjoy!
            

comments powered by Disqus
↑ Back to top | Larrikin Love Bass for Forever Untitled. Lyrics for acoustic guitar and electric guitar. Tablatures and chords are parodies/interpretations of the original songs. You may use it for private study, scholarship, research or language learning purposes only