» » »

Larrikin Love, Edwould Bass tabs (ver.1)

Artists:  A B C D E F G H I J K L M N O P Q R S T U V W X Y Z # 

Edwould Bass tabs (ver.1)

Larrikin Love Tabs
Rating:
2/5 (1 vote)
Edwould lessons Tabs too difficult? Try these video lessons and learn fast
                ---------------------------------------------------------------------------
			     Edwould - Larrkin Love
---------------------------------------------------------------------------


Tuning: Standard

G|---------------------------|---------------------------|
D|---------------------------|---------------------------|
A|---------------------------|---------------------------|
E|--0-0---5-7-----000---5-7--|--0-0---5-7-----000---5-7--|
                                                    
G|---------------------------|---------------------------|
D|---------------------------|---------------------------|
A|--0-0---5-7-----0-0---5-7--|--0-0---5-7-----0-0---5-7--|
E|---------------------------|---------------------------|

G|---------------------------|---------------------------|
D|---------------------------|---------------------------|
A|---------------------------|---------------------------|
E|--0-0---5-7-----000---5-7--|--0-0---5-7-----000---5-7--|
                                                    
G|---------------------------|---------------------------|
D|---------------------------|---------------------------|
A|--0-0---5-7-----0-0---5-7--|--0-0---5-7-----0-0---5-7--|
E|---------------------------|---------------------------|

   ..You're a discusting child...
G|---------------------------|---------------------------|
D|---------------------------|---------------------------|
A|---------------------------|--0-0---5-7-----0-0---5-7--|
E|--0-0---5-7-----0-0---5-5--|---------------------------|

G|---------------------------|---------------------------|
D|---------------------------|---------------------------|
A|---------------------------|--0-0---5-7-----0-0---5-7--|
E|--0-0---5-7-----0-0---5-5--|---------------------------|

G|---------------------------|---------------------------|
D|---------------------------|---------------------------|
A|---------------------------|--0-0---0-0-----0-0---0-0--|
E|--0-0---5-7-----0-0---5-5--|---------------------------|


   Tell me...
G|---------------------------|------------------------------|
D|---------------------------|------------------------------|
A|---------------------------|--555---555--7----------------|
E|--0-0---000-----333---333--|----------------555---555--3--|

G|---------------------------|------------------------------|
D|---------------------------|------------------------------|
A|---------------------------|--555---555-7-----------------|
E|--000---000-----333---333--|--------------5-5-5-5-5-5-5-5-|

G|---------------------------|-------------------------------|
D|---------------------------|-------------------------------|
A|---------------------------|--5----------------------------|
E|--0-------------3----------|----------------5-------3------|

G|---------------------------|-------------------------------|
D|---------------------------|-------------------------------|
A|---------------------------|--5---------7------------------|
E|--0-------------3----------|----------------5-5-5-5-5-5-5-5|

This is all the parts to the song. Just listen to the record to get the arrangement.


| /  slide up
| \  slide down
| h  hammer-on
| p  pull-off
| ~  vibrato
| +  harmonic
| x  Mute note
============================================================================
            

comments powered by Disqus
↑ Back to top | Larrikin Love Bass for Edwould. Lyrics for acoustic guitar and electric guitar. Tablatures and chords are parodies/interpretations of the original songs. You may use it for private study, scholarship, research or language learning purposes only