>
 >
Downing Street Kindling

Downing Street Kindling Bass Tabs

Larrikin Love - Downing Street Kindling chords, tabs, tablatures, lyrics

Guitar lessons | Add/correct | Request | Top 50 tabs Artists:  A B C D E F G H I J K L M N O P Q R S T U V W X Y Z 0-9

Downing Street Kindling Bass Tabs – Larrikin Love

CD, Sheet music, Poster

Do you like Downing Street Kindling? Share with your friends now
Bass TabsChordsTabsTabs v2Ukulele
Gtr I (E A D G) - 'Downing Street Kindling'

 4/4

  Bass - Alfie Ambrose

  E E E E E E E E
|-----------------|
|-----------------|
|-----------------|
|---7---7---7---7-|


  Q.   H    +E    Q.   Q  E E E   E E E E E E E E   +E  E E E E E E E
|---------------|---------------|-----------------|-------------------|
|---------------|---------------|-5---------------|-------------------|
|------0----(0)-|-3----5--5-5-5-|---------3-3---5-|-(5)-5-5-5-5-5-5-5-|
|-3-------------|---------------|-----3-----------|-------------------|


  Q.   H    +E    Q.   Q  E E E   E E E E E E E E   +E  E E E E E E E
|---------------|---------------|-----------------|-------------------|
|---------------|---------------|-5---------------|-------------------|
|---------------|-3----5--5-5-5-|---------3-3---5-|-(5)-5-5-5-5-5-5-5-|
|-0----0----(0)-|---------------|-----3-----------|-------------------|


  Q.   H    +E    Q.   Q  E E E   E E E E E E E E   +E  E E E E E E E
|---------------|---------------|-----------------|-------------------|
|---------------|---------------|-5---------------|-------------------|
|------0----(0)-|-3----5--5-5-5-|---------3-3---5-|-(5)-5-5-5-5-5-5-5-|
|-3-------------|---------------|-----3-----------|-------------------|


  Q.   H    +E    Q.   Q  E E E   E E E E E E E E   +E  E E E E E E E
|---------------|---------------|-----------------|-------------------|
|---------------|---------------|-5---------------|-------------------|
|---------------|-3----5--5-5-5-|---------3-3---5-|-(5)-5-5-5-5-5-5-5-|
|-0----0----(0)-|---------------|-----3-----------|-------------------|


  q  q  q  q    q  q  q  q    q  q  q  q    E  E  E  E  E  E  E  E
|-------------|-------------|-------------|------------------------|
|-------------|-------------|-------------|------------------------|
|-------------|-------------|-------------|------------------------|
|-5--5--5--5--|-7--7--7--7--|-8--8--8--8--|---10-10-10-10-10-10-10-|


  Q.   Q  E E E   Q.   Q  E E E   Q.   Q  E E E    E  E  E  E  E  E  E  E
|---------------|---------------|---------------|-------------------------|
|---------------|---------------|---------------|-------------------------|
|---------------|---------------|---------------|-------------------------|
|-5----5--5-5-5-|-7----7--7-7-7-|-8----8--8-8-8-|-10-10-10-10-10-10-10-10-|


  E E E E E E E E
|-----------------|
|-----------------|
|-----------------|
|---7---7---7---7-|


  Q.   H    +E    Q.   Q  E E E   E E E E E E E E   +E  E E E E E E E
|---------------|---------------|-----------------|-------------------|
|---------------|---------------|-5---------------|-------------------|
|------0----(0)-|-3----5--5-5-5-|---------3-3---5-|-(5)-5-5-5-5-5-5-5-|
|-3-------------|---------------|-----3-----------|-------------------|


  Q.   H    +E    Q.   Q  E E E   E E E E E E E E   +E  E E E E E E E
|---------------|---------------|-----------------|-------------------|
|---------------|---------------|-5---------------|-------------------|
|---------------|-3----5--5-5-5-|---------3-3---5-|-(5)-5-5-5-5-5-5-5-|
|-0----0----(0)-|---------------|-----3-----------|-------------------|


  Q.   H    +E    Q.   Q  E E E   E E E E E E E E   +E  E E E E E E E
|---------------|---------------|-----------------|-------------------|
|---------------|---------------|-5---------------|-------------------|
|------0----(0)-|-3----5--5-5-5-|---------3-3---5-|-(5)-5-5-5-5-5-5-5-|
|-3-------------|---------------|-----3-----------|-------------------|


  Q.   H    +E    Q.   Q  E E E   E E E E E E E E   +E  E E E E E E E
|---------------|---------------|-----------------|-------------------|
|---------------|---------------|-5---------------|-------------------|
|---------------|-3----5--5-5-5-|---------3-3---5-|-(5)-5-5-5-5-5-5-5-|
|-0----0----(0)-|---------------|-----3-----------|-------------------|


  q  q  q  q    q  q  q  q    q  q  q  q    E  E  E  E  E  E  E  E
|-------------|-------------|-------------|------------------------|
|-------------|-------------|-------------|------------------------|
|-------------|-------------|-------------|------------------------|
|-5--5--5--5--|-7--7--7--7--|-8--8--8--8--|---10-10-10-10-10-10-10-|


  Q.   Q  E E E   Q.   Q  E E E   Q.   Q  E E E    E  E  E  E  E  E  E  E
|---------------|---------------|---------------|-------------------------|
|---------------|---------------|---------------|-------------------------|
|---------------|---------------|---------------|-------------------------|
|-5----5--5-5-5-|-7----7--7-7-7-|-8----8--8-8-8-|-10-10-10-10-10-10-10-10-|


   E  E  E  E  E  E  E  E
|-------------------------|
|-------------------------|
|-------------------------|
|-10-10-10-10-10-10-10-10-|


  E E E E E E Q    Q  E E H      Q  E E E E Q    Q  E E H
|----------------|-------------|---------------|-------------|
|----------------|----5-5------|---------------|----5-5------|
|---------5------|-------------|--------5------|-------------|
|-7-5-7-8---7-5--|-3-----------|-7----8---7-5--|-3-----------|


  E E E E E E Q    Q  E E H      Q  E E E E Q    Q  E E Q  E E
|----------------|-------------|---------------|---------------|
|----------------|----5-5------|---------------|----5-5--------|
|---------5------|-------------|--------5------|---------------|
|-7-5-7-8---7-5--|-3-----------|-7----8---7-5--|-3---------3-5-|


  E E E E E E  E  E    E E  E  E  E E E E
|-------------------|---------------------|
|-------------------|---------------------|
|-------------10-12-|-10---10-12-10-------|
|-3---3-5-3---------|-----------------3-5-|


  E E E E E E  E  E    E E  E  E  E E E E
|-------------------|---------------------|
|-------------------|---------------------|
|-------------10-12-|-10---10-12-10-------|
|-3---3-5-3---------|-----------------3-5-|


  E E E E E E  E  E    E E  E  E  E E E E
|-------------------|---------------------|
|-------------------|---------------------|
|-------------10-12-|-10---10-12-10-------|
|-3---3-5-3---------|-----------------3-5-|


  E E E E E E  E  E    E E  E  E  E Q.
|-------------------|--------------------|
|-------------------|--------------------|
|-------------10-12-|-10---10-12-10------|
|-3---3-5-3---------|--------------------|


  Q  E E E E Q    Q  E E H      Q  E E E E Q    Q  E E H
|---------------|-------------|---------------|-------------|
|---------------|----5-5------|---------------|----5-5------|
|--------5------|-------------|--------5------|-------------|
|-7----8---7-5--|-3-----------|-7----8---7-5--|-3-----------|


  E E E E E E Q    Q  E E H      E E E E E E Q    Q  E E H
|----------------|-------------|----------------|-------------|
|----------------|----5-5------|----------------|----5-5------|
|---------5------|-------------|---------5------|-------------|
|-7-5-7-8---7-5--|-3-----------|-7-5-7-8---7-5--|-3-----------|


  Q  Q  Q  Q    Q  Q  Q  Q    Q  Q  Q  Q    Q  Q  Q  Q
|-------------|-------------|-------------|-------------|
|-------------|-------------|-------------|-------------|
|-------3-----|-5-----------|-------3-----|-5-----------|
|-3-----------|-------------|-3-----------|-------------|


                                            |-3-| |-3-|
  Q  Q  Q  Q    Q  Q  Q  Q    Q  Q  Q  Q    Q Q Q Q Q Q
|-------------|-------------|-------------|---------------|
|-------------|-------------|-5-----------|---------------|
|-------3-----|-5-----------|-------3-----|-5-5-5-5-5-5---|
|-3-----------|-------------|-------------|---------------|


  Q  E. S Q  E. S   Q  E. S E. S E. S   Q  E. S Q  E. S   Q  E. S E. S E. S
|-----------------|-------------------|-----------------|-------------------|
|-----------------|-------------------|-----------------|-------------------|
|---------3--3--3-|-5--5--5-5--5-5--5-|---------3--3--3-|-5--5--5-5--5-5--5-|
|-3--3--3---------|-------------------|-3--3--3---------|-------------------|


  Q  E. S Q  E. S   Q  E. S E. S E. S   Q  E. S Q  Q    E E E E E E E E
|-----------------|-------------------|---------------|-----------------|
|-----------------|-------------------|---------------|-----------------|
|---------3--3--3-|-5--5--5-5--5-5--5-|---------3--3--|-5-5-5-5-5-5-5-5-|
|-3--3--3---------|-------------------|-3--3--3-------|-----------------|


  q  q  q  q    q  q  q  q    q  q  q  q    E  E  E  E  E  E  E  E
|-------------|-------------|-------------|------------------------|
|-------------|-------------|-------------|------------------------|
|-------------|-------------|-------------|------------------------|
|-5--5--5--5--|-7--7--7--7--|-8--8--8--8--|---10-10-10-10-10-10-10-|


    Q.   Q  E E E   Q.   Q  E E E   Q.   Q  E E E    E  E  E  E  E  E  E  E
||----------------|---------------|---------------|-------------------------||
||o---------------|---------------|---------------|------------------------o||
||o---------------|---------------|---------------|------------------------o||
||--5----5--5-5-5-|-7----7--7-7-7-|-8----8--8-8-8-|-10-10-10-10-10-10-10-10-||


  E E E E E E E E
|-----------------|----|
|-----------------|----|
|-----------------|----|
|---7---7---7---7-|----|


Duration Legend
---------------
W - whole; H - half; Q - quarter; E - 8th; S - 16th; T - 32nd; X - 64th; a - acciaccatura
+ - note tied to previous; . - note dotted; .. - note double dotted
Uncapitalized letters represent notes that are staccato (1/2 duration)
Irregular groupings are notated above the duration line
Duration letters will always appear directly above the note/fret number it represents the
duration for.  Duration letters with no fret number below them represent rests.  Multi-
bar rests are notated in the form Wxn, where n is the number of bars to rest for.  Low
melody durations appear below the staff

Tablature Legend
----------------
 h   - hammer-on
 p   - pull-off
 b   - bend
 pb  - pre-bend
 r   - bend release (if no number after the r, then release immediately)
 /\  - slide into or out of (from/to "nowhere")
 s   - legato slide
 S   - shift slide
  - natural harmonic
[n]  - artificial harmonic
n(n) - tapped harmonic
 ~   - vibrato
 tr  - trill
 T   - tap
 TP  - trem. picking
 PM  - palm muting
\n/  - tremolo bar dip; n = amount to dip
 \n  - tremolo bar down
 n/  - tremolo bar up
/n\  - tremolo bar inverted dip
 =   - hold bend; also acts as connecting device for hammers/pulls
 <>  - volume swell (louder/softer)
 x   - on rhythm slash represents muted slash
 o   - on rhythm slash represents single note slash

Misc Legend
-----------
 |  - bar
||  - double bar
||o - repeat start
o|| - repeat end
*|  - double bar (ending)
 :  - bar (freetime)
 $  - Segno
 &  - Coda
Tempo markers -  = BPM(8/16=s8/s16), where s8 = swing 8ths, s16 = swing 16ths





Comments


Popular Larrikin Love tabs & chords
Forever Untitled Bass Tabs
Charity Chords
Downing Street Kindling Chords
Ribbon Dance Mews Chords
Downing Street Kindling 2 Tabs
Fall At The Feet Of Rae Tabs
John O Ryans Polkadot Shirt Tabs
Meet Me By The Getaway Car Tabs
Downing Street Kindling Ukulele
Six Queens Ukulele


Song lyrics



↑ Back to top | Tablatures and chords are parodies/interpretations of the original songs. You may use it for private study, scholarship, research or language learning purposes only
© 2014 AZChords.com Contact us | Privacy policy | DMCA | Add/correct tabs | Request tabs | Top 50 tabs