» » »

In For The Kill Tabs (ver.2)

Artists:  A B C D E F G H I J K L M N O P Q R S T U V W X Y Z # 

In For The Kill Tabs (ver.2)

La Roux
Rating:
1/5 (1 vote)

Hard to play? Try these video lessons and learn fast.
                La Roux in for the kill

Tuning Standard CAPO ON 4th FRET
Intro

ALL RELATIVE TO CAPO
E---------------------------------------------|
B---------------------------------------------|
G--4--7--9--2--2-4-2--2-0---------------------|
D-------------------------2-------------------|
A---------------------------------------------|
E---------------------------------------------|

this would probably be best with an ebow but tremelo picking sounds alright

Verse

   Em   C  Cish A
E--------------------------------------------|
B-------1--1---------------------------------|
G-------0--4~---2----------------------------|
D---2---2--2----2--2-------------------------|
A---2---3--3----0--2-------------------------|
E---0---x--x-------0-------------------------|

listen to song for the rythm sounds good muted
(these chords are also played behind the intro)

Chorus

E---3-----------2----------------------------|
B---3---1---0---3----------------------------|
G---0---0---0---2----------------------------|
D---0---2---2------2-------------------------|
A---2---3---3------2-------------------------|
E---3---x---x------0-------------------------|
            ^
           im not entirely sure about this chord but it sounds pretty close

Breakdown

lets call to all to make peace...

rake over these chords
E---3---------------------------------------|
B---3---1---0---0---------------------------|
G---0---0---2---0---------------------------|
D---0---2---2---2---------------------------|
A---2---3---0---2---------------------------|
E---3---0---0---0---------------------------|

Solo

This is Ellys' crazy vocal part add in bends pich harmonics wah whatever

E---------------------------------------------------------------------|
B---------------------------------------------------------------------|
G--4-5-4--2-0-2-0--4-2-0---0---2-0--4-54-54-54---2-0-2-0-4~~-2-0------|
D------------------------2--------------------------------------------|
A---------------------------------------------------------------------|
E---------------------------------------------------------------------|

then return straight in to chorus
ENJOY!
            
Hard to play? Try these video lessons and learn fast. | Correct




comments powered by Disqus
↑ Back to top | Tablatures and chords are parodies/interpretations of the original songs. You may use it for private study, scholarship, research or language learning purposes only