» » »

In For The Kill Bass tabs (ver.1)

Artists:  A B C D E F G H I J K L M N O P Q R S T U V W X Y Z # 

In For The Kill Bass tabs (ver.1)

La Roux
Rating:
0/5 (0 votes)

Hard to play? Try these video lessons and learn fast.
                By La Roux

Intro riff:

G----------------|----------------|----------------|----------------|
D----------------|----------------|----------------|----------------|
A--6~------------|--9--11--4~-----|--4--6--4~------|--4--2----------|
E----------------|----------------|----------------|--------4~------|


Verse 1:

G----------------|----------------|----------------|----------------|
D----------------|----------------|----------------|----------------|
A----------------|----------------|----------------|----------------|
E-4-7--4-4-7-----|-4-4-7--4-4-4-7-|-0-4--0-0-4-----|-0-0-4--0-0-0-4-|
									 x4
G----------------|----------------|----------------|----------------|
D----------------|----------------|----------------|----------------|
A-4-7--4-4-7-----|-4-4-7--4-4-4-7-|----------------|----------------|
E----------------|----------------|-4-7--4-4-7-----|-4-4-7--4-4-4-7-|


Chorus:

G----------------|----------------|----------------|----------------|
D----------------|----------------|----------------|----------------|
A----------------|----------------|----------------|----------------|
E-7-11--7-7-11---|-7-7-11-7-7-7-11|-0-4--0-0-4-----|-0-0-4--0-0-0-4-|
									 
G----------------|----------------|----------------|----------------|
D----------------|----------------|----------------|----------------|
A----------------|----------------|----------------|----------------|
E-0-4--0-0-4-----|-0-0-4--0-0-0-4-|-2-6--2-2-6-----|-2-2-6--2-2-2-6-|

G----------------|----------------|
D----------------|----------------| 					 
A----------------|----------------|
E-4-7--4-4-7-----|-4-4-7--4-4-4-7-|

	Repeat chorus

Bridge 1:

G----------------|----------------|----------------|----------------|
D----------------|----------------|----------------|----------------|
A--6~------------|--9--11--4~-----|--4--6--4~------|--4--2----------|
E----------------|----------------|----------------|--------4~------|


Verse 2:

G----------------|----------------|----------------|----------------|
D----------------|----------------|----------------|----------------|
A----------------|----------------|----------------|----------------|
E-4-7--4-4-7-----|-4-4-7--4-4-4-7-|-0-4--0-0-4-----|-0-0-4--0-0-0-4-|
									 x4
G----------------|----------------|----------------|----------------|
D----------------|----------------|----------------|----------------|
A-4-7--4-4-7-----|-4-4-7--4-4-4-7-|----------------|----------------|
E----------------|----------------|-4-7--4-4-7-----|-4-4-7--4-4-4-7-|


Chorus:

G----------------|----------------|----------------|----------------|
D----------------|----------------|----------------|----------------|
A----------------|----------------|----------------|----------------|
E-7-11--7-7-11---|-7-7-11-7-7-7-11|-0-4--0-0-4-----|-0-0-4--0-0-0-4-|
									 
G----------------|----------------|----------------|----------------|
D----------------|----------------|----------------|----------------|
A----------------|----------------|----------------|----------------|
E-0-4--0-0-4-----|-0-0-4--0-0-0-4-|-2-6--2-2-6-----|-2-2-6--2-2-2-6-|

G----------------|----------------|
D----------------|----------------| 					 
A----------------|----------------|
E-4-7--4-4-7-----|-4-4-7--4-4-4-7-|

	Repeat chorus


Bridge 2:

G----------------|----------------|----------------|----------------|
D----------------|----------------|----------------|----------------|
A----------------|----------------|----------------|----------------|
E-7~-------------|-2~-------------|-0~-------------|-4~-------------|

G----------------|----------------|----------------|----------------|
D----------------|----------------|----------------|----------------|
A----------------|----------------|----------------|----------------|
E-7~-------------|-2~-------------|-0~-------------|-4~-------------|


Vocal Solo:

G----------------|----------------|----------------|----------------|
D----------------|----------------|----------------|----------------|
A----------------|----------------|----------------|----------------|
E-4-7--4-4-7-----|-4-4-7--4-4-4-7-|-0-4--0-0-4-----|-0-0-4--0-0-0-4-|
									 
G----------------|----------------|----------------|----------------|
D----------------|----------------|----------------|----------------|
A-4-7--4-4-7-----|-4-4-7--4-4-4-7-|----------------|----------------|
E----------------|----------------|-4-7--4-4-7-----|-4-4-7--4-4-4-7-|


Chorus:

G----------------|----------------|----------------|----------------|
D----------------|----------------|----------------|----------------|
A----------------|----------------|----------------|----------------|
E-7-11--7-7-11---|-7-7-11-7-7-7-11|-0-4--0-0-4-----|-0-0-4--0-0-0-4-|
									 
G----------------|----------------|----------------|----------------|
D----------------|----------------|----------------|----------------|
A----------------|----------------|----------------|----------------|
E-0-4--0-0-4-----|-0-0-4--0-0-0-4-|-2-6--2-2-6-----|-2-2-6--2-2-2-6-|

G----------------|----------------|
D----------------|----------------| 					 
A----------------|----------------|
E-4-7--4-4-7-----|-4-4-7--4-4-4-7-|
            
Hard to play? Try these video lessons and learn fast. | Correct




comments powered by Disqus
↑ Back to top | Tablatures and chords are parodies/interpretations of the original songs. You may use it for private study, scholarship, research or language learning purposes only