» » »

Sorry State Tabs (ver.1)

Artists:  A B C D E F G H I J K L M N O P Q R S T U V W X Y Z # 

Sorry State Tabs (ver.1)

Larger Than Life
Rating:
0/5 (0 votes)

Tabs too difficult? Try these video lessons and learn fast.
                 
Band: Larger Than Life

intro 
e|------------------------------------------| 
B|------------------------------------------| 
G|------------------------------------------| 
D|---5p4--5p4---5p4--5p4---5p4--5p4---7---7-| 
A|-55----5----------------------------------| 
E|------------55----5----77----7----33-333--| 

Verse & chorus 
e|----------------------------------------| 
B|----------------------------------------| 
G|-77777777-------------------------------| 
D|-77777777--77777777--99999999--55555555-| 
A|-55555555--77777777--99999999--55555555-| 
E|-----------55555555--77777777--33333333-| 

Solo (Play twice, only a slight change at the end) 

e|-------------------| 
B|-------------------| 
G|----11-12-14-12-11-| 
D|-12----------------| (x2) 
A|-------------------| 
E|-------------------| 

e|--------------------------------| 
B|--------------------12----------| 
G|----11-12-14-12-11-----14-12-11-| 
D|-12-----------------------------| 
A|--------------------------------| 
E|--------------------------------| 

e|-------------------| 
B|-------------------| 
G|-14-12-11-12-14-11-| (x2) 
D|-------------------| 
A|-------------------| 
E|-------------------| 

e|-------------| 
B|-------------| 
G|-16-16-14-12-| 
D|-------------| 
A|-------------| 
E|-------------| 

e|-------------------| 
B|-------------------| 
G|-14-12-11-12-14-11-| 
D|-------------------| 
A|-------------------| 
E|-------------------| 

Outro 

e|---------------------| 
B|---------------------| 
G|-777~----------------| 
D|-777~-777~-999~-555~-| 
A|-555~-777~-999~-555~-| 
E|------555~-777~-333~-| 

e|-----------------------------------| 
B|-----------------------------------| 
G|-----------------------------------| 
D|---4\5/4---4\5/4---4\5/4---4h5p4h5-| 
A|-55--------------------------------| 
E|---------55------77------33--------|
            
Tabs too difficult? Try these video lessons and learn fast.




comments powered by Disqus
↑ Back to top | Tablatures and chords are parodies/interpretations of the original songs. You may use it for private study, scholarship, research or language learning purposes only