>
 >
If Tomorrow Never Came

If Tomorrow Never Came Guitar Tabs

Larger Than Life - If Tomorrow Never Came chords, tabs, tablatures, lyrics

Guitar lessons | Add/correct | Request | Top 50 tabs Artists:  A B C D E F G H I J K L M N O P Q R S T U V W X Y Z 0-9

If Tomorrow Never Came Guitar Tabs – Larger Than Life

CD, Sheet music, Poster

Do you like If Tomorrow Never Came? Share with your friends now
Tabs
GUITAR 1:
Intro: 
e|0~-------------------------------------------------------------------------| 
B|5~-------------------------------------------------------------------------| 
G|4~--------------x-x-8h9-8--------------------------------------------------| 
D|2~------------------------h9\7\6\4-4-6-6/7-6~----4-4-4-6-6-6-4-2-2-2-2-2-2-| 
A|---------------------------------------------------------------------------| 
E|---------------------------------------------------------------------------| 
......................... 

Intro Cont'd: 
e|---------------------------------------------------------------------------| 
B|---------------------------------------------------------------------------| 
G|---------------------------------------------------------------------------| 
D|2-2-2-4-4-4-6-6-6-7-6-6-6-6-6-6-6-6-6--------------------------------------| 
A|--------------------------------------6-7-6---7-6---7-6---7-6---7-6---7-6--| 
E|--------------------------------------------7-----7-----7-----7-----7-----7| 
........................................................................... 

Intro Cont'd: 
e|---------------------------------------------------------------------------| 
B|---------------------------------------------------------------------------| 
G|---------------------------------------------------------------------------| 
D|----------------------------------------2-2-2-2-2-2-2-2-2-2-2-2-2-2-2-2----| 
A|7-6---7-6---7-6---7-6---7---7-----------2-2-2-2-2-2-2-2-2-2-2-2-2-2-2-2----| 
E|----7-----7-----7-----7---7---pickslide-0-0-0-0-0-0-0-0-0-0-0-0-0-0-0-0----| 
........................... 

Intro Cont'd: (This part til end of intro) 
e|0--0--0~--0---------------------------------|-7-7-0-0-7-0-0-0-7------------| 
B|5--5--4~--4---------------------------------|------------------------------| 
G|4--4--4~--4-2-2-2-2-2-2-2-2-2-2-2-2-2-2-2-2-|------------------------------| 
D|------------2-2-2-2-2-2-2-2-2-2-2-2-2-2-2-2-|------------------------------| 
A|------------0-0-0-0-0-0-0-0-0-0-0-0-0-0-0-0-|------------------------------| 
E|--------------------------------------------|------------------------------| 

Verse: "Thought I'd never change..." 
e|---------------------------------------------------------------------------| 
B|---------------------------------------------------------------------------| 
G|-------------------------------------------------------------2-------------| 
D|2~------------------7--7--7~----1-1-----1-1-----1-1--------1---------------| 
A|2~----4-4--4-6-6--6-7--7--7~--------2-2-----2-2-----2-2--2-----------------| 
E|0~----2-2--2-4-4--4-5--5--5~-----------------------------------------------| 
... ..... . ............................ 

Verse Cont'd: 
e|---------------------------------------------------------------------------| 
B|---------------------------------------------------------------------------| 
G|------------------------------------------------4-4-4-4-4-4-4-4------------| 
D|2~----4-4--4-6-6--6-7--7--7~----4-4-4-4-4-4-4-4-4-4-4-4-4-4-4-4------------| 
A|2~----4-4--4-6-6--6-7--7--7~----2-2-2-2-2-2-2-2-2-2-2-2-2-2-2-2------------| 
E|0~----2-2--2-4-4--4-5--5--5~-----------------------------------------------| 
... ..... . ............... 

Chorus: "Look at me now..." (2x) 
e|---------------------------------------------------------------------------| 
B|----------------------------------------------------------------5--5--5--5-| 
G|6-6-6-6-6-6-6-6-6-6-6-6-6-6-6-6-4-4-4-4-4-4-4-4-4-4-4-4-4-4-4-4-4--4--4--4-| 
D|6-6-6-6-6-6-6-6-6-6-6-6-6-6-6-6-4-4-4-4-4-4-4-4-4-4-4-4-4-4-4-4-2--2--2--2-| 
A|4-4-4-4-4-4-4-4-4-4-4-4-4-4-4-4-2-2-2-2-2-2-2-2-2-2-2-2-2-2-2-2-0--0--0--0-| 
E|---------------------------------------------------------------------------| 

Chorus Cont'd: 
e|---------------------------------------------------------------------------| 
B|5--5--5--5--5--------------------------------------------------------------| 
G|4--4--4--4--4-4-4-4-4-4-4-4-4----------------------------------------------| 
D|2--2--2--2--2-4-4-4-4-4-4-4-4----------------------------------------------| 
A|0--0--0--0--0-2-2-2-2-2-2-2-2----------------------------------------------| 
E|---------------------------------------------------------------------------| 

Repeat Verse 

Repeat Chorus 

Interlude: "Accept the fact..." 
e|---------------------------------------------------------------------------| 
B|---------------------------------------------------------------------------| 
G|6-6x---2-2x----------4-4x---6-6x---2-2x----------4-4x---6-6-6-6-6\-----2-2x| 
D|6-6x---2-2x---2-2x---4-4x---6-6x---2-2x---2-2x---4-4x---6-6-6-6-6\-----2-2x| 
A|4-4x---0-0x---2-2x---2-2x---4-4x---0-0x---2-2x---2-2x---4-4-4-4-4\-----0-0x| 
E|--------------0-0x------------------------0-0x-----------------------------| 

Interlude Cont'd: 
e|---------------------------------------------------------------------------| 
B|---------------------------------------------------------------------------| 
G|-------4-4x---6-6-6-6-6x---2-2x--x-x-x-x-x-x--------4-4--4-----------------| 
D|2-2x---4-4x---6-6-6-6-6x---2-2x--x-x-x-x-x-x-2-2--2-4-4--4-----------------| 
A|2-2x---2-2x---4-4-4-4-4x---0-0x--x-x-x-x-x-x-2-2--2-2-2--2-----------------| 
E|0-0x-----------------------------------------0-0--0------------------------| 

Bridge: "The way we were..." (3x) 
e|---------------------------------------------------------------------------| 
B|---------------------------------------------------------------------------| 
G|6-6-6-6-6-6-6-6-6-6-6-6-6-6-6-6--------------------------------------------| 
D|6-6-6-6-6-6-6-6-6-6-6-6-6-6-6-6-7-7-7-7-7-7-7-7-7-7-7-7-7-7-7-7------------| 
A|4-4-4-4-4-4-4-4-4-4-4-4-4-4-4-4-7-7-7-7-7-7-7-7-7-7-7-7-7-7-7-7------------| 
E|--------------------------------5-5-5-5-5-5-5-5-5-5-5-5-5-5-5-5------------| 

Bridge Cont'd: 
e|----------------------------------------------------------------0~---------| 
B|----------------------------------------------------------------5~---------| 
G|6-6-6-6-6-6-6-6-6-6-6-6-6-6-6-6---------------------------------4~---------| 
D|6-6-6-6-6-6-6-6-6-6-6-6-6-6-6-6-7-7-7-7-7-7-7-7-9-9-9-9-9-9-9-9-2~---------| 
A|4-4-4-4-4-4-4-4-4-4-4-4-4-4-4-4-7-7-7-7-7-7-7-7-9-9-9-9-9-9-9-9------------| 
E|--------------------------------5-5-5-5-5-5-5-5-7-7-7-7-7-7-7-7------------| 

Repeat Intro 

Outro: 
e|--------------------------------------------------0------------------------| 
B|--------------------------------------------------0------------------------| 
G|------------------------------------6-6-6-6-6-6-6-6-6-6-6-6-6-6-6-6--------| 
D|2-2-2-2-2-2-2-2-2-2-2-2-2-2-2-2-x-x-6-6-6-6-6-6-6-6-6-6-6-6-6-6-6-6-7-7-7-7| 
A|2-2-2-2-2-2-2-2-2-2-2-2-2-2-2-2-x-x-4-4-4-4-4-4-4-4-4-4-4-4-4-4-4-4-7-7-7-7| 
E|0-0-0-0-0-0-0-0-0-0-0-0-0-0-0-0-x-x---------------------------------5-5-5-5| 

Outro Cont'd: 
e|------------------------0-0-0-0-0-0-0-0-0-0--------------------------------| 
B|------------------------4-5-0-0-0-4-5-0-0-0--------------------------------| 
G|------------------------4-4-4-4-4-4-4-4-4-4-6-6-6-6-6-6-6-6-6-6-6-6--------| 
D|7-7-7-7-7-7-7-7-7-7-7-7-2-2-2-2-2-2-2-2-2-2-6-6-6-6-6-6-6-6-6-6-6-6-7-7-7-7| 
A|7-7-7-7-7-7-7-7-7-7-7-7---------------------4-4-4-4-4-4-4-4-4-4-4-4-7-7-7-7| 
E|5-5-5-5-5-5-5-5-5-5-5-5---------------------------------------------5-5-5-5| 

Outro Cont'd: 
e|---------------------------------------------------------------------------| 
B|---------------------------------------------------------------------------| 
G|---------------------------------------------------------------------------| 
D|7-7-7-7-7-7-7-7------------------------------------------------------------| 
A|7-7-7-7-7-7-7-7------------------------------------------------------------| 
E|5-5-5-5-5-5-5-5------------------------------------------------------------| 

Outro Cont'd: (2x) (Strum each chord 16x) 
e|0--------------| 
B|5--------------| 
G|4----6---------| 
D|2----6----7----| 
A|2----4----7----| 
E|0---------5----| 

Outro Cont'd: (2x) (Strum each chord 16x) 
e|---------------| 
B|---------------| 
G|-----6---------| 
D|2----6----7----| 
A|2----4----7----| 
E|0---------5----| 

End On: 
e|0~---| 
B|5~---| 
G|4~---| 
D|2~---| 
A|-----| 
E|-----| 

GUITAR 2:
Intro: (1x) (4x) 
e|--------------------------------|------------------------------------------| 
B|--------------------------------|9-9-9-7-7-7-5-5-5-4-4-4-------------------| 
G|9~-----13-11\9\8\6\4-4-6-6\8-8~-|------------------------4-4-4-4-----------| 
D|9~------------------------------|------------------------------------------| 
A|7~------------------------------|------------------------------------------| 
E|--------------------------------|------------------------------------------| 
............................... 

Intro Cont'd: 
e|---------------------------------------------------------------------------| 
B|5-5--4-5--5-4--5-5--5-4--4-5--5-5-4---5-5-4--5-5--4-5--5-5-5-5-------------| 
G|4-4--4-4--4-4--4-4--4-4--4-4--4-4-4---4-4-4--4-4--4-4--4-4-4-4-------------| 
D|---------------------------------------------------------------------------| 
A|---------------------------------------------------------------------------| 
E|---------------------------------------------------------------------------| 

Intro Cont'd: 
e|---------------------------------------------------------------------------| 
B|---------------------------------------------------------------------------| 
G|--------------------------------6-6-6-6-6-6-6-6-6-6-6-6-6-6-6-6------------| 
D|2-2-2-2-2-2-2-2-2-2-2-2-2-2-2-2-6-6-6-6-6-6-6-6-6-6-6-6-6-6-6-6-7-7-7-7-7-7| 
A|2-2-2-2-2-2-2-2-2-2-2-2-2-2-2-2-4-4-4-4-4-4-4-4-4-4-4-4-4-4-4-4-7-7-7-7-7-7| 
E|0-0-0-0-0-0-0-0-0-0-0-0-0-0-0-0---------------------------------5-5-5-5-5-5| 

Intro Cont'd: 
e|---------------------------------------------------------------------------| 
B|---------------------------------------------------------------------------| 
G|---------------------------------------------------------------------------| 
D|7-7-7-7-7-7-7-7-7-7--------------------------------------------------------| 
A|7-7-7-7-7-7-7-7-7-7--------------------------------------------------------| 
E|5-5-5-5-5-5-5-5-5-5--------------------------------------------------------| 

Verse: "Thought I'd never change..." (2x) 
e|---------------------------------------------------------------------------| 
B|--------------------5-5--0~------------------------------------------------| 
G|--------------------4-4--4~--4/6-4-4/6-4-4/6-4-4/6-4-----------------------| 
D|2~------------------2-2--2~--x-x-x-x-x-x-x-x-x-x-x-x-----------------------| 
A|2~---4-4--4-6-6--6-----------2/4-2-2/4-2-2/4-2-2/4-2-----------------------| 
E|0~---2-2--2-4-4--4---------------------------------------------------------| 

Chorus: "Look at me now..." (2x) 
e|---------------------------------------------------------------------------| 
B|----------------------------------------------------------------5--5--5--5-| 
G|9-9-9-9-9-9-9-9-9-9-9-9-9-9-9-9-8-8-8-8-8-8-8-8-8-8-8-8-8-8-8-8-4--4--4--4-| 
D|x-x-x-x-x-x-x-x-x-x-x-x-x-x-x-x-x-x-x-x-x-x-x-x-x-x-x-x-x-x-x-x-2--2--2--2-| 
A|7-7-7-7-7-7-7-7-7-7-7-7-7-7-7-7-6-6-6-6-6-6-6-6-6-6-6-6-6-6-6-6-0--0--0--0-| 
E|---------------------------------------------------------------------------| 

Chorus Cont'd: 
e|---------------------------------------------------------------------------| 
B|5--5--5--5--5--------------------------------------------------------------| 
G|4--4--4--4--4-4-4-4-4-4-4-4-4----------------------------------------------| 
D|2--2--2--2--2-4-4-4-4-4-4-4-4----------------------------------------------| 
A|0--0--0--0--0-2-2-2-2-2-2-2-2----------------------------------------------| 
E|---------------------------------------------------------------------------| 

Repeat Verse 

Repeat Chorus 

Interlude: (Play same as Guitar 1) 

Bridge: "The way we were..." (3x) 
e|---------------------------------------------------------------------------| 
B|---------------------------------------------------------------------------| 
G|6-6-6-6-6-6-6-6-8-8-8-8-9-9-9-9-----------------9-9-9-9-8-8-8-8------------| 
D|x-x-x-x-x-x-x-x-x-x-x-x-x-x-x-x-7-7-7-7-7-7-7-7-x-x-x-x-x-x-x-x------------| 
A|4-4-4-4-4-4-4-4-6-6-6-6-7-7-7-7-7-7-7-7-7-7-7-7-7-7-7-7-6-6-6-6------------| 
E|--------------------------------5-5-5-5-5-5-5-5----------------------------| 

Bridge Cont'd: 
e|---------------------------------------------------------------------------| 
B|---------------------------------------------------------------------------| 
G|6-6-6-6-6-6-6-6-8-8-8-8-9-9-9-9---------------------------------9~---------| 
D|x-x-x-x-x-x-x-x-x-x-x-x-x-x-x-x-7-7-7-7-7-7-7-7-9-9-9-9-9-9-9-9-9~---------| 
A|4-4-4-4-4-4-4-4-6-6-6-6-7-7-7-7-7-7-7-7-7-7-7-7-9-9-9-9-9-9-9-9-7~---------| 
E|--------------------------------5-5-5-5-5-5-5-5-7-7-7-7-7-7-7-7------------| 

Repeat Intro 

Outro: (24x) Then this: 
e|-----------|---------------------------------------------------------------| 
B|0----------|-0--9h10-9-0--0--0--0--0--0------------------------------------| 
G|9----------|-9---------9--9--9--9--9--9------------------------------------| 
D|-----------|---------------------------------------------------------------| 
A|-----------|---------------------------------------------------------------| 
E|-----------|---------------------------------------------------------------| 

Outro: (4x) 
e|---------------------------------------------------------------------------| 
B|---------------------------------------------------------------------------| 
G|9-9-9-9-9-9-9-9-9-9-9-9-9-9-9-9-8-8-8-8-9-9-9-9-4-4-4-4-4-4-4-4-4-4-4-4-4-4| 
D|x-x-x-x-x-x-x-x-x-x-x-x-x-x-x-x-x-x-x-x-x-x-x-x-x-x-x-x-x-x-x-x-x-x-x-x-x-x| 
A|7-7-7-7-7-7-7-7-7-7-7-7-7-7-7-7-6-6-6-6-7-7-7-7-2-2-2-2-2-2-2-2-2-2-2-2-2-2| 
E|---------------------------------------------------------------------------| 

Outro Cont'd: 
e|---------------------------------------------------------------------------| 
B|---------------------------------------------------------------------------| 
G|4-4-6-6-6-6-6-6-6-6-8-8-8-8-9-9-9-9----------------------------------------| 
D|x-x-x-x-x-x-x-x-x-x-x-x-x-x-x-x-x-x----------------------------------------| 
A|2-2-4-4-4-4-4-4-4-4-6-6-6-6-7-7-7-7----------------------------------------| 
E|---------------------------------------------------------------------------| 

End on: 
e|-----| 
B|-----| 
G|9~---| 
D|9~---| 
A|7~---| 
E|-----|





Comments


Popular Larger Than Life tabs & chords
Last Summer Bass Tabs
Note To Self: City Park, 2pm Tabs
Our Ten Year Tabs
Sorry State Tabs


Song lyrics



↑ Back to top | Tablatures and chords are parodies/interpretations of the original songs. You may use it for private study, scholarship, research or language learning purposes only
© 2014 AZChords.com Contact us | Privacy policy | DMCA | Add/correct tabs | Request tabs | Top 50 tabs