» » »

La Renga, Oscuro Diamante Tabs (ver.1)

Artists:  A B C D E F G H I J K L M N O P Q R S T U V W X Y Z # 

Oscuro Diamante Tabs (ver.1)

La Renga Tabs
 Rating:
4/5 (6 votes)
Oscuro Diamante lessons Tabs too difficult? Try these video lessons and learn fast
                This is my favourite band arround here, I hope you to like it...If you Download the song from
I'm sure that tuy'll love it...Givin' you an idea, in one night this band bring more 
75.000people, which is a record here in Argentina, cause the bands play in Stadiums...so, no
talking...here it is Oscuro Diamante...(ahora escribo en español)

INTRO

E|-----------------|
B|-----------------|
G|-4-5-------5-7---|  x4
D|-4-5-2---2-5-7---|
A|-2-3-2---2-3-5---|
E|-----------------|

E|-----------0-2-3-2-0-7-----------------3-5-8-7-5--12--12-14-10--10-10-12-|
B|---------0------------7/8-7----------------------------------------------|
G|-----------------------------5-5-----5-----------------------------------|
D|-2-2---2---------------------5-5---5-------------------------------------|
A|-2-2-2-----------------------3-3-3---------------------------------------|
E|-------------------------------------------------------------------------|

E|-10-10---------------------------|
B|-------13-12-13-12--10/12---12---|
G|---------------------------------|
D|---------------------------------|
A|---------------------------------|
E|---------------------------------|

E5                       C5
 Busquemos Vida Algún Lugar,
                                   G5
Al Reparo Del Mundo Sin Brillo Que Hoy,
                   D5
En El Cosmos De La Mente,
           B5    C5
Se Hizo Estrella Opaca.

E5                        C5
¿Hacia Dónde Más Podremos Ir?,
                                   G5
Tal Vez El Oscuro Diamante Está En Mí,
                   D5
Tal Vez Seamos Fugitivos,
         B5      C5
De Donde Nadie Escapa.

E|-----------0-2-3-2-0-7----------------3-5-8-7-5--12--12-14-10--10-10-12-|
B|---------0------------7/8-7---------------------------------------------|
G|----------------------------5-5-----5-----------------------------------|
D|-2---2----------------------5-5---5-------------------------------------|
A|-2-2------------------------3-3-3---------------------------------------|
E|------------------------------------------------------------------------|

E|-10-10---------------------------|
B|-------13-12-13-12--10/12---12---|
G|---------------------------------|
D|---------------------------------|
A|---------------------------------|
E|---------------------------------|

E5                              C5
Una Huella Invisible Quisiera Dejar,
                               G5
Y Que Nadie Sepa Que Estubimos Acá,
                           D5
¿Quién Dió A Luz Al Primer Sueño,
     B5     C5
Para Ir Tan Lejos?

E5                              C5
Si Pudieran Mis Ojos, Ver En El Sol,
                            G5
Para Saber Esta Sombra Descifrar,
                       D5
Pero Aunque Ya Se Hizo Tarde,
    B5     C5
Sigamos Buscando

E|-----------0-2-3-2-0-7-----------------3-5-8-7-5--12--12-14-10--10-10-12-|
B|---------0------------7/8-7----------------------------------------------|
G|-----------------------------5-5-----5-----------------------------------|
D|-2-2---2---------------------5-5---5-------------------------------------|
A|-2-2-2-----------------------3-3-3---------------------------------------|
E|-------------------------------------------------------------------------|

SOLO SAXO, THE GUITAR PLAYS THE SAME CHORDS FROM THE INTRO AND LYRICS, like this:

E|-----------------|
B|-----------------|
G|-4-5-------5-7---|  x4
D|-4-5-2---2-5-7---|
A|-2-3-2---2-3-5---|
E|-----------------|

THEN THE CHORDS FROM THE LYRIC PART:
E5; C5; G5; D5; B5; C5 x4

E5                                   C5
Perdido Y Sin Decirlo Presiento El Final,
                                   G5
Enterrando En La Noche El Pesado Dolor,
                    D5
Nos Hacemos Más Livianos,
       B5           C5
Nos Quedamos Sin Sentido.

   E5                  C5
El Mundo Por Fín Se Apagó,
                              G5
Dejando A Oscuras La Vieja Ilusión,
                      D5
Que Aunque Sea Ya Muy Tarde,
     B5     C5
Seguimos Buscando.

E|-----------------|
B|-----------------|
G|-4-5-------5-7---|  x4
D|-4-5-2---2-5-7---|
A|-2-3-2---2-3-5---|
E|-----------------|

E|-----------0-2-3-2-0-7------------------------------------|
B|---------0------------7/8---------7-8-7-8-7-...Until stops| <--only whit
G|----------------------------------------------------------|  the finger on
D|-2---2----------------------------------------------------|  the string,
A|-2-2------------------------------------------------------|  not pulling
E|----------------------------------------------------------|  it...


Well, this is te one. Ihope you like it, I'm sorry, but my english isn't good, but it's
best I can do...Remember! Download this song...YOU'LL LOVE IT!!

AGUANTE LA RENGA LOCOOOO!!!!!!!
            
Submit corrections

comments powered by Disqus
↑ Back to top | La Renga Tabs for Oscuro Diamante. Lyrics for acoustic guitar and electric guitar. Tablatures and chords are parodies/interpretations of the original songs. You may use it for private study, scholarship, research or language learning purposes only