» » »

El Rey De La Triste Felicidas Tabs (ver.1)

Artists:  A B C D E F G H I J K L M N O P Q R S T U V W X Y Z # 

El Rey De La Triste Felicidas Tabs (ver.1)

La Renga
Rating:
0/5 (0 votes)

Hard to play? Try these video lessons and learn fast.
                INTRO:

e |---------------------------------------------
B |---------------------------------------------
G |-----10------------10-11-10-11--10-----------
D |-9-9-10-----12-----10-11-10-11--10-----------
A |-9-9--------12-9-9---------------------------
E |-7-7----7-9-10-7-7---------------------------

INTRO:

e |---------------------------------------------
B |---------------------------------------------
G |-----10------------10-11-10-11--10-----------
D |-9-9-10-----12-----10-11-10-11--10-----------
A |-9-9--------12-9-9---------------------------
E |-7-7----7-9-10-7-7---------------------------

(D B) x2

INTRO x2

D                               B
  ¿Qué podemos hacer cuando se sienta mal?
D                                  B
  si está bancando su bronca masticando vidrios
D                         B 
  ¿Quién lo quiere invitar a ver televisión?
G                            D
  ¿Quién sacará las astillas de su corazón?
A                     E                        G
  ¿Qué podrán decir? ¿Quién lo va a convencer?

INTRO x2

¿Qué podemos hacer cuando se sienta bien?

si está salvando su sueño anestesiándose

¿Quién lo quiere invitar con un electroshock?

¿Quién lamerá los rasguños de su desesperación?

¿Qué podemos decir? ¿Quién lo va a convencer?

INTRO

G                                            C
  Se ha convertido en daga el dolor de este tonto rey,
G                                      C
  rey de un reino sin mundo, reino que no tiene ley,
D                     A
  rey que se desangra pero aún tiene esperanzas,
C                           E                       G
  serás feliz siendo triste, rey qué puedo decirte.

SOLO: base (B F#) x4 (D B) x4

D                              B
  Nada podemos hacer cuando se sienta mal,
D                              B
  nada podemos hacer cuando se sienta bien,
A                                    G
  él es el rey de una maldición que lo hizo rey,
A                          E                       G
  será feliz siendo triste, rey qué puedo decirte.

INTRO x4
            
Hard to play? Try these video lessons and learn fast. | Correct




comments powered by Disqus
↑ Back to top | Tablatures and chords are parodies/interpretations of the original songs. You may use it for private study, scholarship, research or language learning purposes only