>
 >
War Pimp Renaissance

War Pimp Renaissance Guitar Tabs

Lard - War Pimp Renaissance chords, tabs, tablatures, lyrics

Guitar lessons | Add/correct | Request | Top 50 tabs Artists:  A B C D E F G H I J K L M N O P Q R S T U V W X Y Z 0-9

War Pimp Renaissance Guitar Tabs – Lard

CD, Sheet music, Poster

Do you like War Pimp Renaissance? Share with your friends now
Tabs
Tuning: Standard


e|--------------------------------------------------|
B|--------------------------------------------------|
G|--------------------------------------------------|
D|--------------------------------------------------| x7
A|---------7-7--------5-5--------7-7---------8-8----|
E|--0-0-0-------0-0-0------0-0-0------0-0-0---------|

e|------------------------------------------------|
B|------------------------------------------------|
G|-----------------------------------10--10--10---|
D|-----------------------------------10--10--10---|
A|---------7-7--------5-5-------7-7--8---8---8----|
E|--0-0-0-------0-0-0-----0-0-0-------------------|


e|---------------------------------------------------|   \
B|---------------------------------------------------|    \
G|--9----------9----------9----------10--10--10------|x3   \
D|--9----------9----------9----------10--10--10------|      |   
A|--7----------7----------7----------8---8---8-------|      |
E|----0--0-0-0---0--0-0-0---0--0-0-0-----------------|      |
                                                            |x2 
                                                            |
e|-----------------------------------------------|          |
B|-----------------------------------------------|         /
G|--9----------9----------9----------------------|        /
D|--9----------9----------9----------8--8--8-----|       / 
A|--7----------7----------7----------8--8--8-----|
E|----0--0-0-0---0--0-0-0---0--0-0-0-6--6--6-----|


e|---------------------------------------------------|   
B|---------------------------------------------------|    
G|--9----------9----------9----------10--10--10------|x3   
D|--9----------9----------9----------10--10--10------|         
A|--7----------7----------7----------8---8---8-------|   
E|----0--0-0-0---0--0-0-0---0--0-0-0-----------------|      
                                                            
e|-------------------------------------------------|   
B|-------------------------------------------------|    
G|--9----------9----------9----------9-------------|   
D|--9----------9----------9----------9-------------|         
A|--7----------7----------7----------7-------------|     
E|----0--0-0-0---0--0-0-0---0--0-0-0---0--0-0-0----| 

e|---------------------------------------------------------|
B|---------------------------------------------------------|
G|-------------------------------------10--10-10-10-10-----|
D|--2-----------5-----------8----------10--10-10-10-10-----| x3
A|--2-----------5-----------8----------8---8--8--8--8------|
E|--0--0-0-0-0--3--3-3-3-3--6--6-6-6-6---------------------|

e|-----------------------------------------------------|
B|-----------------------------------------------------|
G|-------------------------------------10--10--10------|
D|--2-----------5-----------8----------10--10--10------| 
A|--2-----------5-----------8----------8---8---8-------|
E|--0--0-0-0-0--3--3-3-3-3--6--6-6-6-6-----------------|

e|------------------------------------------------------|
B|------------------------------------------------------|
G|------------------------------------------------------| x7
D|--9-----------7-----------9-----------10--------------|
A|--7-----------5-----------7-----------8---------------|
E|----0--0-0-0----0--0-0-0----0--0-0-0-----0--0-0-0-----|


e|--------------------------------------------------|
B|--------------------------------------------------|
G|--------------------------------------------------| 
D|--9-----------7-----------9-----------8--8--8-----|
A|--7-----------5-----------7-----------8--8--8-----|
E|----0--0-0-0----0--0-0-0----0--0-0-0--6--6--6-----|

e|---------------------------------------------------|   
B|---------------------------------------------------|    
G|--9----------9----------9----------10--10--10------|x3   
D|--9----------9----------9----------10--10--10------|         
A|--7----------7----------7----------8---8---8-------|      
E|----0--0-0-0---0--0-0-0---0--0-0-0-----------------|      
                                                             
                                                            
e|-----------------------------------------------|          
B|-----------------------------------------------|         
G|--9----------9----------9----------------------|        
D|--9----------9----------9----------8--8--8-----|       
A|--7----------7----------7----------8--8--8-----|
E|----0--0-0-0---0--0-0-0---0--0-0-0-6--6--6-----|


e|---------------------------------------------------|   
B|---------------------------------------------------|    
G|--9----------9----------9----------10--10--10------|x3   
D|--9----------9----------9----------10--10--10------|         
A|--7----------7----------7----------8---8---8-------|   
E|----0--0-0-0---0--0-0-0---0--0-0-0-----------------|      
                                                            
e|-------------------------------------------------|   
B|-------------------------------------------------|    
G|--9----------9----------9----------9-------------|   
D|--9----------9----------9----------9-------------|         
A|--7----------7----------7----------7-------------|     
E|----0--0-0-0---0--0-0-0---0--0-0-0---0--0-0-0----| 



e|---------------------------------------------------------|
B|---------------------------------------------------------|
G|-------------------------------------10--10-10-10-10-----|
D|--2-----------5-----------8----------10--10-10-10-10-----| x3
A|--2-----------5-----------8----------8---8--8--8--8------|
E|--0--0-0-0-0--3--3-3-3-3--6--6-6-6-6---------------------|


e|-----------------------------------------------------|
B|-----------------------------------------------------|
G|-------------------------------------10--10--10------|
D|--2-----------5-----------8----------10--10--10------| 
A|--2-----------5-----------8----------8---8---8-------|
E|--0--0-0-0-0--3--3-3-3-3--6--6-6-6-6-----------------|


e|--------------------------------------------------|
B|--------------------------------------------------|
G|--------------------------------------------------|
D|--------------------------------------------------| x7
A|---------7-7--------5-5--------7-7---------8-8----|
E|--0-0-0-------0-0-0------0-0-0------0-0-0---------|


e|------------------------------------------------|
B|------------------------------------------------|
G|-----------------------------------10--10--10---|
D|-----------------------------------10--10--10---|
A|---------7-7--------5-5-------7-7--8---8---8----|
E|--0-0-0-------0-0-0-----0-0-0-------------------|



e|-------------------------------------------------------------------------------------------------|
B|-------------------------------------------------------------------------------------------------|
G|-------------------------------------------------------------------------------------------------|
D|--5----------5-----------5-----------8-----------2-----------2-----------2---------2-------------| 
A|--5----------5-----------5-----------8-----------2-----------2-----------2---------2-------------|
E|--3-3--3-3-3-3-3--3-3-3--3-3--3-3-3--6-6--6-6-6--0-0--0-0-0--0--0-0-0-0--0--0-0-0--0-0--0-0-0----|


-------------------------------------------------------|
B|-----------------------------------------------------|
G|-------------------------------------10--10--10------|
D|--5----------5-----------8-----------10--10--10------|
A|--5----------5-----------8-----------8---8---8-------|
E|--3-3--3-3-3-3-3--3-3-3--6-6--6-6-6------------------|


e|---------------------------------------------------|   
B|---------------------------------------------------|    
G|--9----------9----------9----------10--10--10------|x3   
D|--9----------9----------9----------10--10--10------|         
A|--7----------7----------7----------8---8---8-------|      
E|----0--0-0-0---0--0-0-0---0--0-0-0-----------------|      
                                                             
                                                            
e|-----------------------------------------------|          
B|-----------------------------------------------|         
G|--9----------9----------9----------------------|        
D|--9----------9----------9----------8--8--8-----|       
A|--7----------7----------7----------8--8--8-----|
E|----0--0-0-0---0--0-0-0---0--0-0-0-6--6--6-----|


e|---------------------------------------------------|   
B|---------------------------------------------------|    
G|--9----------9----------9----------10--10--10------|x4
D|--9----------9----------9----------10--10--10------|         
A|--7----------7----------7----------8---8---8-------|      
E|----0--0-0-0---0--0-0-0---0--0-0-0-----------------|      


e|---------------------------------------------------|   \
B|---------------------------------------------------|    \
G|--9----------9----------9----------10--10--10------|x3   \
D|--9----------9----------9----------10--10--10------|      |   
A|--7----------7----------7----------8---8---8-------|      |
E|----0--0-0-0---0--0-0-0---0--0-0-0-----------------|      |
                                                            |x2 
                                                            |
e|-----------------------------------------------|          |
B|-----------------------------------------------|         /
G|--9----------9----------9----------------------|        /
D|--9----------9----------9----------8--8--8-----|       / 
A|--7----------7----------7----------8--8--8-----|
E|----0--0-0-0---0--0-0-0---0--0-0-0-6--6--6-----|


e|---------------------------------------------------|   
B|---------------------------------------------------|    
G|--9----------9----------9----------10--10--10------|x3   
D|--9----------9----------9----------10--10--10------|         
A|--7----------7----------7----------8---8---8-------|   
E|----0--0-0-0---0--0-0-0---0--0-0-0-----------------|      
                                                            
e|----------------------------------------|   
B|----------------------------------------|    
G|--9----------9----------9---------------|   
D|--9----------9----------9---------------|         
A|--7----------7----------7---------------|     
E|----0--0-0-0---0--0-0-0---0--0-0-0------| 
                                                        
 
e|-------------------------------------|
B|-------------------------------------|
G|--10--10--10--10--10--10--10--10-----|  repeat to fade
D|--10--10--10--10--10--10--10--10-----|
A|--8---8---8---8---8---8---8---8------|
E--------------------------------------|





Comments


Popular Lard tabs & chords
Fork Boy Bass Tabs
Bozo Skeleton Tabs
Can God Fill Teeth Tabs
Forkboy Tabs
Hellfudge 1 Tabs
Mate Spawn And Die Tabs
Mate Spawn And Die 1 Tabs
Pineapple Face 1 Tabs
The Power Of Lard Tabs
The Power Of Lard 1 Tabs


Song lyrics



↑ Back to top | Tablatures and chords are parodies/interpretations of the original songs. You may use it for private study, scholarship, research or language learning purposes only
© 2014 AZChords.com Contact us | Privacy policy | DMCA | Add/correct tabs | Request tabs | Top 50 tabs