» » »

Bozo Skeleton Tabs (ver.1)

Artists:  A B C D E F G H I J K L M N O P Q R S T U V W X Y Z # 

Bozo Skeleton Tabs (ver.1)

Lard
Rating:
5/5 (1 vote)

Hard to play? Try these video lessons and learn fast.
                This is 1st guitar tab only.

Intro
0:12           0:25        0:37
|--------------|-----------|------------|
|--------------|-----------|------------|
|--------------|-----------|------------|
|-9-9----10----|9----10----|9-9-9-10-7--|
|-7-7---- 8----|7---- 8----|7-7-7- 8-5--|
|--------------|-----------|------------|

Verse
0:50         1:15          1:27                      
|------------|---------------|-------------------------|
|------------|---------------|-------------------------|
|------------|---------------|-------------------------|
|-9----10----|-9-9-9-9-10-7--|-11-11-11\10-10\9-9\8-8--|
|-7---- 8----|-7-7-7-7- 8-5--|- 9- 9- 9\ 8- 8\7-7\6-6--|
|------------|---------------|-------------------------|

1:36 (this may be incorrect)    1:46
|-------------------------------|-------------------------------|
|-------------------------------|-------------------------------|
|-------------------------------|----------------------------4--|
|----------------------------2--|-------------------------------|
|----2---2---2---2---2---2------|----2---2---2---2---2---2------|
|0-0-0-0-0-0-0-0-0-0-0-0-0-0----|0-0-0-0-0-0-0-0-0-0-0-0-0-0----|

1:49                            1:59
|-------------------------------|--------------------------------|
|-------------------------------|--------------------------------|
|-------------------------------|--------------------------------|
|----------------------------2--|--------------------------------|
|----2---2---2---2---2---2------|----2---2---2---2---2---2-7-7-7-|
|0-0-0-0-0-0-0-0-0-0-0-0-0-0----|0-0-0-0-0-0-0-0-0-0-0-0-0-5-5-5-|

Choruzz                  Bridge
2:03                     2:14
|------------------------|------------|
|------------------------|------------|
|------------------------|------------|
|-----------------5-5----|-9----10----|
|7-7--10-10--7-7--3-3----|-7---- 8----|
|5-5-- 8- 8--5-5---------|------------|

Outro
4:03            4:26
|---------------|---------------|
|---------------|---------------|
|---------------|---------------|
|-9-9-9-9-10-7--|-9-9-9-9-10--7-|
|-7-7-7-7- 8-5--|-7-7-7-7- 8--5-|
|---------------|---------------|

intro
verse 1
chorus
verse 2 (the same as 1st)
chorus
outro
            
Hard to play? Try these video lessons and learn fast. | Correct




comments powered by Disqus
↑ Back to top | Tablatures and chords are parodies/interpretations of the original songs. You may use it for private study, scholarship, research or language learning purposes only