» » »

L Arc En Ciel, Shi No Hai Bass tabs (ver.1)

Artists:  A B C D E F G H I J K L M N O P Q R S T U V W X Y Z # 

Shi No Hai Bass tabs (ver.1)

L Arc En Ciel Tabs
Rating:
0/5 (0 votes)
Shi No Hai lessons Tabs too difficult? Try these video lessons and learn fast
                INTRO

|-----------------|-----------------|---------3-------|-----------------|
|-----------------|-------------3-2-|-0---0-0---------|-----------------|
|---0-----2-3-----|---------3-------|-----------0-3-3-|-1---1-1-1-1-1---|
|-------3-----3-3-|-1---1-1---0-----|-----------------|---------------3-|

|-----------------|-----------------|---------3-------|-----------------|
|-----------------|-------------2-2-|-0---0-0---3-----|-----------------|
|---0-----2-3-----|---------0-3-----|-------------3-0-|-1---1-1-1-1-----|
|-------3-----3-0-|-1---1-1---------|-----------------|-------------3-3-|

VERSE

|-----------------|-----------------|-----------------|-----------------|
|-----------------|-----------------|-----------------|-----------------|
|-----------------|-----------------|-3---3-3-x-x-2-3-|---------0-3-2---|
|-5---\---x-x-0-3-|-1---1-1-x-x-0-1-|-----------------|-3---0-3-------3-|

|-----------------|-----------------|-----------0-----|-----------------|
|-----------------|-----------------|-------3-----3---|-----------------|
|-0---0-0-x-x-0---|-----------------|-3---3---3-----3-|---------0-3-2---|
|---------------3-|-1---1-1-x-x-0-1-|-----------------|-3---0-3-------3-|

|-----------------|-----------------|-----------------|-----------------|
|-----------------|-----------------|-----------------|-----------------|
|-0---0-0-x-x-----|-----------------|-3---3-3-x-x-2-3-|-------3---3-2---|
|-------------0-3-|-1---1-1-x-x-0-1-|-----------------|-3---3---3-----3-|

|-----------------|-----------------|-----------------|-----------------|
|-----------------|-----------------|-------2---3-2---|-----------------|
|-0---0-3-0---0-0-|-----------------|-3---3---3-----3-|---------0-3-2---|
|-----------3-----|-1---0-1---x-x-x-|-----------------|-3---0-3-------3-|

BRIDGE                                10  10  10
                      10                10  12  10  10
|-----------------|-----------------|---*---*-*-*-----|-----------------|
|-----------------|---*---8-7-7-7---|-*---*---------*-|-\---------------|
|-----------------|---------------8-|-----------------|-----------------|
|-0-1---1---1-1-/-|-----------------|-----------------|---1---1---x-x-x-|

VERSE

|-----------------|-----------------|-----------------|-----------------|
|-----------------|-----------------|-----------------|-----------------|
|-0---0-3-0---0-0-|-----------------|-3---3-3-x-x-2-3-|-------------2---|
|-----------3-----|-1---0-1---x-x-x-|-----------------|-3---3-3-x-x---3-|

|-----------------|-----------------|-----------------|-----------------|
|-----------------|-----------------|-------2---3-2---|-----------------|
|-0---0-0-x-x-----|-----------------|-3---3---3-----3-|---------0-3-2---|
|-------------0-3-|-1---1-1-x-x-0-1-|-----------------|-3---0-3-------3-|

|-----------------|-----------------|-----------------|-----------------|
|-----------------|-----------------|-----------------|-----------------|
|-0---0-0-x-x-----|-----------------|-3---3-3-x-x-2-3-|---------0-3-2---|
|-------------0-3-|-1---1-1---1-0-1-|-----------------|-3---0-3-------3-|

|-----------------|-----------------|-----------------|-----------------|
|-----------------|-----------------|-------2---3-2---|-----------------|
|-0---0-3-0---0-0-|-----------------|-3---3---3-----3-|---------3-2-0---|
|-----------3-----|-1---0-1---x-x-x-|-----------------|-3---0-3-------3-|

BRIDGE                                10  10        10
                      10                12  10
|-----------------|-----------------|---*-*-*-9-9-----|-----------------|
|-----------------|---*-8-8-7-7-----|-*-------------*-|-\---------------|
|-----------------|-8-------------8-|-----------------|-----------------|
|-0-1---1---/---\-|-----------------|-----------------|---1---1---x-x-x-|

CHORUS

|-----------------|-----------------|-----------------|-----------------|
|-----------------|-------2-2-3-2---|-------0---------|---------0-------|
|-----------------|-3---3---------3-|---------3---2---|-0-----0---3-2---|
|-1---1-1-1-1-1-1-|-----------------|-3---3---------3-|-----0---------3-|

|-----------------|---------------0-|-----------------|-----------------|
|-----------------|-------2-2-3-3---|-----------------|-----------------|
|-----------------|-3---3-----------|-----------------|---------0-----5-|
|-1---1-1-1-1-1-1-|-----------------|-3---3-3-3-3-3-3-|-4---0-4-----0---|

|-----------------|-----------------|-----------------|-------0---------|
|-----------------|-------2---3---3/|-5---------------|---------3-3-2-0-|
|-\-0---0---0-0-0-|-----3---3---3---|---0---0---0-0-0-|-----3-----------|
|-----------------|-1---------------|-----------------|-1---------------|

|-----------------|-----------------|-----------------|-----------------|
|---0---0---0-0-0-|---------------3-|-\---2-------0---|---------------2-|
|-3---------------|-------------3---|---0---0---------|-------3---------|
|-----------------|-3---3-3-4-------|---------3-----3-|-1---1---0---0---|

|-----------------|-----------------|
|-0---0-0---0-0---|-----------------|
|---------------0-|-3-/-------------|
|-----------------|-----6-6-6-6-6-3-|

SOLO

|-----------------|-----------------|-----------------|-----------------|
|-----------------|-----------------|-----------------|-----------------|
|-----------------|-----------------|-3---3-3-x-x-2-3-|---------0-3-2---|
|-3-5-\---x-x-0-3-|-1---1-1-x-x-0-1-|-----------------|-3---0-3-------3-|

|-----------------|-----------------|-----------------|-----------------|
|-----------------|-----------------|-------2---3-2---|-----------------|
|-0---0-0-x-x-----|-----------------|-3---3---3-----3-|---------3-3-2---|
|-------------0-3-|-1---1-1-x-x-0-1-|-----------------|-3---0-3-------3-|

|-----------------|-----------------|-----------------|-----------------|
|-----------------|-----------------|-------2---3-2---|-----------------|
|-0---0-3-0---0-0-|-----------------|-3---3---3-----3-|---------0-3-2---|
|-----------3-----|-1---0-1---x-x-x-|-----------------|-3---0-3-------3-|

|-----------------|-----------------|-----------------|-----------------|
|-----------------|-----------------|-------2---3-2---|-----0-----------|
|-0---0-3-0---0-0-|---------0-3-2---|-3---3---3-----3-|-------3-2-3-2---|
|-----------3-----|-1---0-1-------3-|-----------------|-3-------------3-|

PRE-CHORUS

|-----------------|-----------------|-----------------|-----------------|
|-----2-2-2-2-0---|-----------------|-----0-0-0-0-----|-----2-0---0-----|
|---------------0-|-----------------|-------------2---|-0-------3---3-2-|
|-0---------------|-1---1-1-1-1-0-1-|-3-------------3-|-----------------|

|-----------------|-----------------|-----------------|-----------------|
|-----------------|-----------------|-----------------|-----0-0---------|
|-----------------|-0---0-0-0-0-----|-----------------|---------3-3-2---|
|-3---3-3-3-3-0-3-|-------------3-0-|-1---1-1-1-1-1-1-|-0-------------3-|

BRIDGE                                    12  10
                      10                    12  10  10
|-----------------|-----------------|-----*-*-*-*-----|-----------------|
|---------------3-|-/-*-8-8-7-7-----|-7-------------*-|-\---------------|
|-----------------|---------------8-|---8-------------|-----------------|
|-0-1---1---1-----|-----------------|-----------------|---1---1---x-x-x-|

CHORUS

|-----------------|-----------------|-----------------|-----------------|
|-----------------|-------2-2-3-2---|-------0---------|---------0-------|
|-----------------|-3---3---------3-|---------3-3-2---|-0-----0---3-2---|
|-1---1-1-1-1-1-1-|-----------------|-3---3---------3-|-----0---------3-|

|-----------------|---------------0-|-----------------|-----------------|
|-----------------|-------2-2-3-3---|-----------------|-----------------|
|-----------------|-3---3-----------|-----------------|---------0-----5-|
|-1---1-1-1-1-1-1-|-----------------|-3---3-3-3-3-3-3-|-4---0-4-----0---|

|-----------------|-----------------|-----------------|-------0---------|
|*----------------|-------2---3---3/|-5---------------|---------3-3-2-0-|
|*\-0---0---0-0-0-|-----3---3---3---|---0---0---0-0-0-|-----3-----------|
|-----------------|-1---------------|-----------------|-1---------------|

|-----------------|-----------------||
|---0---0---0-0-0-|---------------3*||
|-3---------------|-------------3--*||
|-----------------|-3---3-3-4-------||

|-----------------|-----------------|-----------------|-----------------||
|*\---2-------0---|-----------------|-0---0-0---0---0-|----------------*||
|*--0---0---------|-------3-----3---|-------------0---|----------------*||
|---------3-----3-|-1---1---0-----0-|-----------------|-3---6-6-6-6-6-3-||

ENDING  10  10  10
      10  10  10    10
|-6-/-*-*-*-*-*-*-|-*---\-----------||
|-----------------|-----------------||
|-----------------|-----------------||
|-----------------|-----------------||
            

comments powered by Disqus
↑ Back to top | L Arc En Ciel Bass for Shi No Hai. Lyrics for acoustic guitar and electric guitar. Tablatures and chords are parodies/interpretations of the original songs. You may use it for private study, scholarship, research or language learning purposes only