» » »

L Arc En Ciel, Ready Steady Go Tabs (ver.1)

Artists:  A B C D E F G H I J K L M N O P Q R S T U V W X Y Z # 

Ready Steady Go Tabs (ver.1)

L Arc En Ciel Tabs
Rating:
0/5 (0 votes)
Ready Steady Go lessons Tabs too difficult? Try these video lessons and learn fast
                My first submission here, plus my second tab. Hope you guys like it. I dont get how the
template works, so if this is wrong, im sorry and if anyone can help fix it up it would
be much appreciated.


     Part One
    
     Palm Mute 
     [-------------------]     [-------------------]    [-------------------]

E|---2-2-2-2-2-2-2-2-2-2-2-----2-2-2-2-2-2-2-2-2-2-2----2-2-2-2-2-2-2-2-2-2-2-----|
A|-------------------------4------------------------4------------------------4----|
D|-------------------------6------------------------6------------------------6----|
G|-------------------------6------------------------6------------------------6----|
B|--------------------------------------------------------------------------------|
e|--------------------------------------------------------------------------------|
  
  Intro Junk
                                Part Two x 2
  PM   
   [--]
        s   s  s
E|--2-2--12--2---16----------|--6--------------------------4----------------------|
A|---------------------------|--8--------------------------6----------------------|
D|---------------------------|--8--------------------------6----------------------|
G|---------------------------|----------------------------------------------------|
B|---------------------------|----------------------------------------------------|
e|---------------------------|----------------------------------------------------|

                                                       Part Three x 2

E|----------------------------------------------------|--6-6-6-6-6-6-6-6-6-6-6-6--|
A|--6--------------------------8----------------------|---------------------------|
D|--8--------------------------10---------------------|---------------------------|
G|--8--------------------------10---------------------|---------------------------|
B|----------------------------------------------------|---------------------------|
e|----------------------------------------------------|---------------------------|



E|-4-4-4-4-4-4-4-4-4-4-4-4--------------------------------------------------------|
A|--------------------------6-6-6-6-6-6-6-6-6-6-6-6-6---8-8-8-8-8-8-8-8-8-8-8-8---|
D|--------------------------------------------------------------------------------|
G|--------------------------------------------------------------------------------|
B|--------------------------------------------------------------------------------|
e|--------------------------------------------------------------------------------|

  Chorus Intro


E|-----------------------------|
A|-----------------------------|
D|-----------------------------|
G|-----b--------b--------------|
B|--11---12--11---12--12-------|
e|-----------------------------|

  
   Part Four


E|--------------------------------------------------------------------------------|
A|--6-----------------------5--------------------------6-6-6-6-6-6-6-6-8-8-8-8-8-8|
D|--8-----------------------7-----------------------------------------------------|
G|--8-----------------------7-----------------------------------------------------|
B|--------------------------------------------------------------------------------|
e|--------------------------------------------------------------------------------|



E|--6-6-6-6-6-6-6-6-6-6-6------|
A|-----------------------------|
D|-----------------------------|
G|-----------------------------|
B|-----------------------------|
e|-----------------------------|


Chorus Intro

Part Four

Part One, then add one more bar

Part Three

Then Play this till the next chorus:


E|-----------------------------|
A|---9-9-9-9-9-9-9-9-9-9-9-----|
D|---9-9-9-9-9-9-9-9-9-9-9-----|
G|-----------------------------|
B|-----------------------------|
e|-----------------------------|

Chorus Intro


Part Four


Chorus Intro


Part Four


Part One (add bar) x 4


Ken Solo!


E|--------------------------------------------------------------------------------|
A|----------------------------------------------------------------------------11--|
D|---15-15-15-15-15-15-15-15--------------------------------------------------13--|
G|----------------------------------------------h----p------19-17-19----19--------|
B|----------------------------18-18-18-18-18-16---18---16------------16-----------|
e|--------------------------------------------------------------------------------|


E|--------------------------------------------------------------------------------|
A|--------------------------------------------------------------------------------|
D|--------------------------------------------------------------------------------|
G|--14-16-14--------h----p-----19-17---------------------19------15---18----------|
B|-----------18--16---18---16----------------18----18-15----15--------------------|
e|-------------------------------------18-15----15------------------------18------|


E|-----------------------------|
A|-----------------------------|
D|-----------------------------|
G|-----------------------------|
B|----h----p----19-18-19-------|
e|-16---18---16-----------21^24|



Part Four x 2

Outro

E|-----------------------------|
A|-----------------------------|
D|-----------------------------|
G|--8--------------------------|
B|--10-------------------------|
e|-----------------------------|

Part One
            

comments powered by Disqus
↑ Back to top | L Arc En Ciel Tabs for Ready Steady Go. Lyrics for acoustic guitar and electric guitar. Tablatures and chords are parodies/interpretations of the original songs. You may use it for private study, scholarship, research or language learning purposes only