» » »

L Arc En Ciel, Perfect Blue Bass tabs (ver.1)

Artists:  A B C D E F G H I J K L M N O P Q R S T U V W X Y Z # 

Perfect Blue Bass tabs (ver.1)

L Arc En Ciel Tabs
Rating:
0/5 (0 votes)
Perfect Blue lessons Tabs too difficult? Try these video lessons and learn fast
                Intro:
|-----------------|-----------------||
|*----------------|----------------*||
|*3-----3-------3-|----------------*||
|-----------------|-4-4---4---3---4-||


Pre-verse:
|-----------------|-----------------|-----------------|-----------------|
|-----------------|-----------------|-----------------|-----------1-1---|
|-3-----3-------3-|-----------------|-3-----3-------3-|-----4-3-4-------|
|-----------------|-4-4---4---3---4-|-----------------|-4---------------|


Verse1:
|-----------------|-----------------||
|*----------------|----------------*||
|*3-----3-------3-|----------------*||
|-----------------|-4-4---4---3-4-3-||

|-----------------|-------0---2-----|-----------------|---------0-------|
|-------------2-0-|---4---------0---|-----------------|-------0---------|
|-0---0---0-0-----|---------------0-|-----------------|---2-3-----------|
|-----------------|-----------------|-1-0-1-0-1-3---3-|-----------------|


Verse2:
|-----------------|-----------------||
|*----------------|----------------*||
|*3-----3-------3-|----------------*||
|-----------------|-4-4---4---3-4-3-||

|-----------------|-----------------|-----------------|-----------------|
|-------------0---|-----------------|-----------------|-----------------|
|-0---0---0-0---3-|---2-------2-----|-----------------|-----------------|
|-----------------|-------4-----0---|-1---1---1-1-1-4-|---3---4---3-4-3-|


Chorus:
|-----------------|-----------------|-----------------|-----------------||
|*------------1---|-----------0-2---|-----------------|----------------*||
|*3---3---3-4---4-|---4-4---4-------|-----------------|----------------*||
|-----------------|-----------------|-1---1---1-0-1-4-|---3---3---1---3-||


Bridge:
|-----------------|-----------------|-----------------|-----------------|
|-----------------|-----------------|-----------------|-----0-2---0-2-0-|
|-3-----3-------3-|-----------------|-3-----3-------3-|---3-------------|
|-----------------|-4-4---4---3-4-3-|-----------------|-4---------------|


--Verse1


Verse3:
|-----------------|-----------------|-----------------|-----------------|
|-----------------|-----------------|-----------------|-------1-----1---|
|-3-----3-------3-|-----------------|-3-----3-------3-|---1-4-----4---4-|
|-----------------|-4-4---4---3-4-3-|-----------------|-4---------------|

|-----------------|-----------------|-----------------|-----------------|
|-------------2-0-|-------0---2-----|-----------------|-----------------|
|-0---0---0-0-----|---4-4-----------|-----------------|-----------------|
|-----------------|-----------------|-1-0-1-0-1-0-1-4-|---3---4---3-4-3-|


--Chorus


Pre-solo:
|-----------------|-----------------|-----------------|-----------------|
|-0-0-0-0-0-0-0-0-|-----------------|-----------------|-----------------|
|-----------------|-4-4-4-4-4-4-4-4-|-3-3-3-3-3-3-3-3-|-1---1-0---1-1-4-|
|-----------------|-----------------|-----------------|-----------------|

|-----------------|-----------------|-----------------|-----------------|
|-0-0-0-0-0-0-0-0-|-----------------|-----------------|-----------------|
|-----------------|-4-4-4-4-4-4-4-4-|-3-3-3-3-3-3-3-3-|-----------------|
|-----------------|-----------------|-----------------|-3-3-3-3-3-3-3-3-|

|-----------------|
|---2-0---0-------|
|-------4---4-2-0-|
|-1---------------|


Solo:
|-----------------|-----------------|-0---------------|-----------------|
|-----------------|---------------0-|---0-------------|-----------------|
|-3-----3-------3-|-----------1-----|-----3-2---2---2-|-----------------|
|-----------------|-4-----4---------|-----------------|-2-3-4-4---3---4-|

|-----------------|---------------0-|-0---------------|-----------------|
|-----------0-0---|-0-0-2-0-----2---|---4-4-2-2-0-0---|-----------------|
|---2-4---2-----2-|-----------4-----|---------------4-|-4-2-2-0-0-------|
|-3-----3---------|-----------------|-----------------|-----------3-----|

|-----------------|-----------------|---------------0-|-0---------------|
|-----------------|-----------------|-----------------|---4-4-2-2-0-----|
|-3-----3-------3-|-----------1---2-|-3-----3---------|-------------3-2-|
|-----------------|-4-4---4---------|-----------------|-----------------|

|-------------0---|-------------0---|-----------------|-----------------|
|-----------------|-----------------|-----------------|-----------------|
|-0-----0-0-0-----|-0---2---3-------|-----------------|-----------------|
|-----------------|-----------------|-1---1---1-1-1-4-|---4---4---3-4-3-|


--Chorus 2x

--Pre-verse


Ending:
|-----------------|-----------------||
|*----------------|----------------*||
|*3-----3-------3-|----------------*||
|-----------------|-4-4---4---3-4-3-||

|-----------------|-----------------||
|-----------------|-----------------||
|-3~~-------------|-----------------||
|-----------------|-----------------||
            

comments powered by Disqus
↑ Back to top | L Arc En Ciel Bass for Perfect Blue. Lyrics for acoustic guitar and electric guitar. Tablatures and chords are parodies/interpretations of the original songs. You may use it for private study, scholarship, research or language learning purposes only