>
 >
Love Flies

Love Flies Bass Tabs

L Arc En Ciel - Love Flies chords, tabs, tablatures, lyrics

Guitar lessons | Add/correct | Request | Top 50 tabs Artists:  A B C D E F G H I J K L M N O P Q R S T U V W X Y Z 0-9

Love Flies Bass Tabs – L Arc En Ciel

CD, Sheet music, Poster

Do you like Love Flies? Share with your friends now
Bass TabsBass Tabs v2Chords
TIMING: 4/4

This song is relatively HARD :) The bassist for this band, tetsu is the best
Japanese Bass player I've ever seen that uses a PICK!! :) Here you go
This is tabbed from the very beginning to the end of the song :)
I'm not expert at bass ... :) But I Think this guy is really awesome,
if you want more info on this band, L'Arc~en~Ciel, which must be like #1 in Japan,

Intro:
When the drums enter, then the bass enters with

G-/9-9-797----------
D----------9-7-9-7--
A-------------------
E-------------------

G--------------------------------------------------------------------
D-------------------2------5-4----------------------2---/12----------
A-7-------------2-3---3--5-----5--7---------5-4-3-3---3-----12-------
E---7-6-5-5-3-5---------------------7-6-5-5--------------------10----

G--------------------------------------------------------------------
D-------------------2-------------------------------2---/12----------
A-7-------------2-3---3--5--------7---------5-4-3-3---3-----12-------
E---7-6-5-5-3-5------------0-2-3----7-6-5-5--------------------10----

G--------------------------------------------------------------------
D-------------------2------5-4---------------------------------------
A-7-------------2-3---3--5-----5--7---------5-4-3-3---3-5------------
E---7-6-5-5-3-5---------------------7-6-5-5---------x-----0-2-3-0----

G-------------------------------------4------------------------------
D-------------------------5-4-------5--------------------------------
A-7---------5-4-3-3---3-5------5--7-----7-5---5----------------------
E---7-6-5-5---------x-----------------------7---5~-------------------

G--------------------------------------------------------------------
D--------------------------------------------------------------------
A---2---3-3-3-3-3-3-3-3-3-3-3-3-5-5-7--------------------------------
E-5-----------------------------------3-3-3-3-3-3-3-3----------------

G--------------------------------------------------------------------
D----------------------------------------------------------7---7-----
A-------/5-5-5-----------------------------------------7-7---7-------
E-3-3-3--------3-3-7-7-7-7-7-7-7-7-7-7-7-7-7-7-7-5-5-7---------------

G--------------------------------------------------------------------
D-7-5---5-7-5-7-5-7-5-x----------------------------------------------
A-----7-----------------3-3-3-3-3-3-3-3-3-3-3-3-3-5-5-7--------------
E--------------------------------------------------------------------

G--------------------------------------------------------------------
D--------------------------------------------------------------------
A-----------------------/5-5-5---------------------------------------
E-3-3-3-3-3-3-3-3-3-3-3--------3-7-7-7-7-7-7-7-7-7-7-7-7-7-7-7-7-----

G--------------------------16---------------h-p------------h-p-------
D--------------14----14-------14-14----14-121412----10-10-9109----12-
A-3-3-3-x-/15-----15----15----------15-----------14------------10----
E--------------------------------------------------------------------

G-----------------------------h-p------------h-p----------12-11-11---
D-12-10-9------------/14-14-121412----10-10-9109----12-12---------12-
A---------12-10-9------------------14------------10------------------
E-----------------10-------------------------------------------------

G--------------------------------------------------------------------
D-------------------2------5-4----------------------2---/12----------
A-7-------------2-3---3--5-----5--7---------5-4-3-3---3-----12-------
E---7-6-5-5-3-5---------------------7-6-5-5--------------------10----

G--------------------------------------------------------------------
D-------------------2-------------------------------2---/12----------
A-7-------------2-3---3--5--------7---------5-4-3-3---3-----12-------
E---7-6-5-5-3-5------------0-2-3----7-6-5-5--------------------10----

G--------------------------------------------------------------------
D-------------------2------5-4---------------------------------------
A-7-------------2-3---3--5-----5--7---------5-4-3-3---3-5------------
E---7-6-5-5-3-5---------------------7-6-5-5---------x-----0-2-3-0----

G-------------------------------------4------------------------------
D-------------------------5-4-------5--------------------------------
A-7---------5-4-3-3---3-5------5--7-----7-5---5----------------------
E---7-6-5-5---------x-----------------------7---5~-------------------

G--------------------------------------------------------------------
D--------------------------------------------------------------------
A---2---3-3-3-3-3-3-3-3-3-3-3-3-5-5-7--------------------------------
E-5-----------------------------------3-3-3-3-3-3-3-3----------------

G--------------------------------------------------------------------
D----------------------------------------------------------7---7-----
A-------/5-5-5-----------------------------------------7-7---7-------
E-3-3-3--------3-3-7-7-7-7-7-7-7-7-7-7-7-7-7-7-7-5-5-7---------------

G--------------------------------------------------------------------
D-7-5---5-7-5-7-5-7-5-x----------------------------------------------
A-----7-----------------3-3-3-3-3-3-3-3-3-3-3-3-3-5-5-7--------------
E--------------------------------------------------------------------

G--------------------------------------------------------------------
D--------------------------------------------------------------------
A-----------------------/5-5-5---------------------------------------
E-3-3-3-3-3-3-3-3-3-3-3--------3-7-7-7-7-7-7-7-7-7-7-7-7-7-7-7-7-----

G--------------------------------------------------------------------
D-------------14---------14-----15-----------------------------------
A-------x-/15----15-15-15--15-15--15-15-7----------------------------
E-8-8-8-----------------------------------7-6-5-5~---5---x-----------

G--------------------------------------------------------------------
D--------------------------------------------------------------------
A-7---------------------------7--------------------------------------
E---7-6-5-5-0-3-0-3-0-3-5-5-x---7-6-5-5-0-3-0-3-0-3-5-5-x------------

G--------------------------------------------------------------------
D--------------------------------------------------------------------
A-7-------------------------1-1-1-1-1-1-1-1-1-1-1-1-3-3-3-5----------
E---7-6-5-5-0-3-0-3-0-3-5-0------------------------------------------

G--------------------------------------------------------------------
D----------------------------------------------------7---7-7-5-------
A-----------------------3-3-3-------------------/7-7---7-------8-7---
E-1-1-1-1-1-1-1-1-1-1-1-------1-x-5-5-5-5-5-5-5--------------------3-

G--------------------------------------------------------------------
D--------------------------------------------------------------------
A-----------10-10-8----8-10-8-10-8-10---1-1-1-1-1-1-1-1-1-1-1-1-3----
E-3-3-3-/10---------10----------------x------------------------------

G--------------------------------------------------------------------
D--------------------------------------------------------------------
A-3-3-5-----------------------3-3-3-----------------------/7-5-5-----
E-------1-1-1-1-1-1-1-1-1-1-1-------1-x-5-5-5-5-5-5-5-5-5------------

G--------------------------------------------------------------------
D---------------------------9----------------------------------------
A-8-7---------5-5---x-----7---7-9---3-3-3-3-3-3-3-3-3-5-5-5-5-5-2-3--
E-----8-6-6-6-----6---x-0--------------------------------------------

G------------------------------------------------
D------------------------------------------------
A-3-3-3-3-3-3-3-3-3-3-3-3-5-5-7------------------
E--------------------------------3-3-3-3-3-3-3-3-
G--------------------------------------------------------------------
D----------------------------------------------------------7---7-----
A-------/5-5-5-----------------------------------------7-7---7-------
E-3-3-3--------3-3-7-7-7-7-7-7-7-7-7-7-7-7-7-7-7-5-5-7---------------

G--------------------------------------------------------------------
D-7-5---5-7-5-7-5-7-5-x----------------------------------------------
A-----7-----------------3-3-3-3-3-3-3-3-3-3-3-3-3-5-5-7--------------
E--------------------------------------------------------------------

G--------------------------------------------------------------------
D--------------------------------------------------------------------
A-----------------------/5-5-5---------------------------------------
E-3-3-3-3-3-3-3-3-3-3-3--------3-7-7-7-7-7-7-7-7-7-7-7-7-7-7-7-7-----

G-------------------------------
D-------------------------------
A-3-3-3-3-3-3-3-3-5-5-5-5-5-2-3-
E-------------------------------

G------------------------------------------------
D------------------------------------------------
A-3-3-3-3-3-3-3-3-3-3-3-3-5-5-7------------------
E--------------------------------3-3-3-3-3-3-3-3-

G--------------------------------------------------------------------
D----------------------------------------------------------7---7-----
A-------/5-5-5-----------------------------------------7-7---7-------
E-3-3-3--------3-3-7-7-7-7-7-7-7-7-7-7-7-7-7-7-7-5-5-7---------------

G--------------------------------------------------------------------
D-7-5---5-7-5-7-5-7-5-x----------------------------------------------
A-----7-----------------3-3-3-3-3-3-3-3-3-3-3-3-3-5-5-7--------------
E--------------------------------------------------------------------

G--------------------------------------------------------------------
D--------------------------------------------------------------------
A-----------------------/5-5-5---------------------------------------
E-3-3-3-3-3-3-3-3-3-3-3--------3-7-7-7-7-7-7-7-7-7-7-7-7-7-7-7-7-----

G-----------/12-----h-p-----------------------------------------------
D---------------10-9109-------------------------------2-------5-4-----
A-3-3-3-3-3-------------10-10-10-x--7-------------2-3---3-5-5-----5---
E-------------------------------------7-6-5-5-3-5---------------------

G---------------------------------------------------------------------
D-------------------2---5-4-------------------------------5-4---------
A-7---------5-4-3-3---3-----5-x-7-------------2-3-------5-----5-------
E---7-6-5-5-----------------------7-6-5-5-3-5-----0-2-3---------------

G--------------------------------------------------------------------
D----------------------4----5----7-------------------2-----5-4-------
A-7---------5-4-3-3-/5---/7---/9---7-------------2-3---3-5-----5-----
E---7-6-5-5--------------------------7-6-5-5-3-5---------------------

G--------------------------------------------------------------------
D-------------------2------5-4---------------------------------------
A-7---------5-4-3-3---3--5-----5-7-------------2-3~--3-5-------------
E---7-6-5-5------------------------7-6-5-5-3-5-----------5-----------

G--------------------------------------------------------------------
D--------------------------------------------------------------------
A-7-7-7--------------------------------------------------------------
E---------x-7-5--5~----5~-----5~----1/-------------------------------





Comments


Popular L Arc En Ciel tabs & chords
Perfect Blue Bass Tabs
Anata Chords
Dive To Blue Chords
Hitomino Junin Chords
Love Flies Chords
Shallow Sleep Hyde Chords
Stay Away Chords
Honey Tabs
Jiyuu E No Shotai Tabs
Jiyuu E No Shoutai Tabs


Song lyrics



↑ Back to top | Tablatures and chords are parodies/interpretations of the original songs. You may use it for private study, scholarship, research or language learning purposes only
© 2014 AZChords.com Contact us | Privacy policy | DMCA | Add/correct tabs | Request tabs | Top 50 tabs