>
 >
Kaze No Yukue

Kaze No Yukue Bass Tabs

L Arc En Ciel - Kaze No Yukue chords, tabs, tablatures, lyrics

Guitar lessons | Add/correct | Request | Top 50 tabs Artists:  A B C D E F G H I J K L M N O P Q R S T U V W X Y Z 0-9

Kaze No Yukue Bass Tabs – L Arc En Ciel

CD, Sheet music, Poster

Do you like Kaze No Yukue? Share with your friends now
Bass Tabs
INTRO

|-----------------|
|-----------------|
|---------------3-|
|-----------------|

|-----------------|-----------------|-----------------|-----------------|
|-----------------|-----------------|-----------------|-----------------|
|-3---------------|---5-5-/-----\---|-----------------|-----------------|
|-----------------|-----------------|-3-3-3-3-3-3-3-3-|-3-3-3-3-3-3-3-3-|
                    10
|-----------------|-----------------|
|-----------------|-----------------|
|-----------------|-*---\-----------|
|-3-3-3-3-3-3-3-/-|---------3-2---0-|

VERSE

|-----------------|-----------------|-----------------|-----------------|
|-----2-----0---2-|-----------------|-----------------|-----------------|
|-------2---------|-2-2-2-------0-2-|-3-3-3-------0-3-|-----------------|
|---0-------------|-------2---2-----|-------3---3-----|-3-3-3-2---3-2-3-|

|-----------------|-----------------|-------2---0-----|-----------------|
|-------2-4-4-5-\-|-----------------|---4-4-------4---|-0-0-------------|
|---2-------------|-2-2-2-------0-2-|-3-------------3-|-------0---------|
|-0---------------|-------2---2-----|-----------------|-----------3-2-3-|

|-----------------|-----------------|-----------------|-----------------|
|-------2-----0-2-|-----------------|-----------------|-----------------|
|-----------2-----|-2-2-2-------0-2-|-3-3-3-------0-3-|-----------------|
|-0-0-0-----------|-------2---2-----|-------3---3-----|-3-3-3-2---3-2-3-|

|-----------------|-----------------|-----------------|-------2---0-----|
|-------2---4-5-\-|-----------------|-----------------|-0-0-0-------4-0-|
|---2-------------|-2-2-2-------0-2-|-3-3-3-------0-3-|-----------------|
|-0---------------|-------2---2-----|-------3---3-----|-----------------|

BRIDGE

|-----------------|-----------------|-----------------|-----------------||
|*----------------|-------2---0-----|-----------0---0-|-2---/----------*||
|*3---3-0---0-0-1-|-2---2-------0-2-|-3---3-0---------|----------------*||
|-----------------|-----------------|-----------------|-------0---2-2-3-||

VERSE

|-----------------|-----------------|-----------------|-----------------|
|-----------0-0-2-|-------4---2-0---|-----------------|-----------------|
|-------2---------|-2---2---------2-|-3-3-3-------0-3-|-----------------|
|-0---0-----------|---2-------------|-------3---3-----|-3-3-3-2---3-2-3-|

|-----------------|-----------------|-------2---0-----|-----------------|
|-------2-4-4-5-\-|-------4---2-0---|---4-4-------4---|-0-0-------------|
|---2-------------|-2-2-2---------2-|-3-------------3-|-------0---------|
|-0---------------|-----------------|-----------------|-----------3-2-3-|

|-----------------|-----------------|-----------------|-----------------|
|-----------0-0-2-|-------4---2-0---|-----------------|-----------------|
|-------2---------|-2---2---------2-|-3-3-3-------0-3-|-----------------|
|-0-0-0-----------|---2-------------|-------3---3-----|-3-3-3-2---3-2-3-|

|-----------------|-----------------|-----------------|-------2---0-----|
|-------2---4-5-\-|-----------------|-----------------|-0-0-0-------4-0-|
|---2-------------|-2-2-2-------0-2-|-3-3-3-------0-3-|-----------------|
|-0---------------|-------2---2-----|-------3---3-----|-----------------|

BRIDGE

|-----------------|-----------------|-----------------|---------------|
|-----------------|-----------------|-----------------|---------4-5---|  7/8
|-----------------|-----------------|-----------------|---------------| <---
|-3-3-3-3-3-3-3-3-|-3-3-3-3-3-3-3-3-|-3-3-3-3-3-3-3-3-|-/-----\-----4-|

PRE-CHORUS

|-----------0-----|-----------------|-----------------|-----------------|
|-0---0-4-0---4-0-|-------2---------|-------0-2-4-2-0-|-------0-2-4-2-0-|
|-----------------|-3---3---3---0-3-|-2---2-----------|-2---2-----------|
|-----------------|-----------3-----|-----------------|-----------------|

|-----------0-----|-----------------|-------------0---|-2---4---2---0-----|
|-0---0-4-0---4-0-|-------2---------|-------0-2-4---4-|---------------4-0-|  9/8
|-----------------|-3---3---3---0-3-|-2---2-----------|-------------------| <---
|-----------------|-----------3-----|-----------------|-------------------|

|-----------------|-----------------|-----------------|-----------------|
|-----------------|-----------------|-----------------|-----------------|
|-0---0-------0---|-2---2-------0-2-|-3---------------|-----------------|
|-------3-3-3---3-|-------3-3-3-----|-----------------|-----------------|

CHORUS
       . .     . .       . .     . .       . .     . .       . .
|------4-4--------|-----------------|-----------------|------2-22---0-2-||
|*2-2-----2-2--4-4|------4-4-----5-5|------5-5-----5-5|-0-0-------4----*||  3x
|*----------------|-2-2-----2-2-----|-3-3-----3-3-----|----------------*|| <--
|-----------------|-----------------|-----------------|-----------------||
       . .     . .       . .     . .       . .     . .
|------4-4--------|-----------------|-----------------|-----------------|
|-2-2-----2-2--4-4|------4-4-----5-5|------5-5-----5-5|-0-0-------------|
|-----------------|-2-2-----2-2-----|-3-3-----3-3-----|-----3-3-2-------|
|-----------------|-----------------|-----------------|-----------3-2-3-|

SOLO

|-----------------|-----------------|-----------------|-----------------|
|*----------------|-----------------|-----------------|-----2-22-20-----|
|*3---3-0---0-0---|---------00------|-2---2-2---2-/---|-------------3-2-|
|---------------0-|---0-3-0---3-2-3-|---------------0-|-----------------|

|-----------------|-----------------|-----------------|-----------------||
|-----------------|-----------------|-----------------|-----2-22-20----*||
|-3---3-0---0-0---|---------00------|-2---2-2---2-2---|-------------3-2*||
|---------------0-|---0-3-0---3-2-3-|---------------0-|-----------------||

PRE-CHORUS

|-----------0-----|-----------------|-----------------|-----------------|
|-0---0-4-0---4-0-|-------2---------|-------0-2-4-2-0-|-------0-2-4-2-0-|
|-----------------|-3---3---3---0-3-|-2---2-----------|-2---2-----------|
|-----------------|-----------3-----|-----------------|-----------------|

|-----------0-----|-----------------|-----------------|-----------------|
|-0---0-4-0---4-0-|-------2---------|-------0-2-4-2-0-|---0-------------|
|-----------------|-3---3---3---0-3-|-2---2-----------|-2---2---0-2---0-|
|-----------------|-----------3-----|-----------------|-------2-----2---|

|-----------0-----|-----------------|-----------------|-----------------|
|-0---0-4-0---4-0-|-------2---------|-------0-2-4-2-0-|-------0-2-4-2-0-|
|-----------------|-3---3---3---0-3-|-2---2-----------|-2---2-----------|
|-----------------|-----------3-----|-----------------|-----------------|

|-----------0-----|-----------------|-------------0---|-2---4---2---0-----|
|-0---0-4-0---4-0-|-------2---------|-------0-2-4---4-|---------------4-0-|  9/8
|-----------------|-3---3---3---0-3-|-2---2-----------|-------------------| <---
|-----------------|-----------3-----|-----------------|-------------------|

|-----------------|-----------------|-----------------|-----------------|
|-----------------|-----------------|-----------------|-----------------|
|-0---0-------0---|-2---2-------0-2-|-3-3-3-------0-2-|-3---------------|
|-------3-3-3---3-|-------3-3-3-----|-------3---3-----|-----------------|

|-----------------|
|-----------------|
|-----------------|
|-----------------|

CHORUS
       . .     . .       . .     . .       . .     . .       . .
|------4-4--------|-----------------|-----------------|------2-22-0-----|
|-2-2-----2-2--4-4|------4-4-----5-5|------5-5-----5-5|-0-0---------4-0-|
|-----------------|-2-2-----2-2-----|-3-3-----3-3-----|-----------------|
|-----------------|-----------------|-----------------|-----------------|
       . .     . .       . .     . .       . .     . .       . .
|------4-4--------|-----------------|-----------------|------2-22---0-2-|
|-2-2-----2-2--4-4|------4-4-----5-5|------5-5-----5-5|-0-0-------4-----|
|-----------------|-2-2-----2-2-----|-3-3-----3-3-----|-----------------|
|-----------------|-----------------|-----------------|-----------------|
       . .     . .       . .     . .       . .     . .       . .
|------4-4--------|-----------------|-----------------|------2-22-0-----|
|-2-2-----2-2--4-4|------4-4-----5-5|------5-5-----5-5|-0-0---------4-0-|
|-----------------|-2-2-----2-2-----|-3-3-----3-3-----|-----------------|
|-----------------|-----------------|-----------------|-----------------|
       . .     . .       . .     . .       . .     . .   
|------4-4--------|-----------------|-----------------|-2-0---0---------|
|-2-2-----2-2--4-4|------4-4-----5-5|------5-5-----5-5|-----4---4-0-4-0-|
|-----------------|-2-2-----2-2-----|-3-3-----3-3-----|-----------------|
|-----------------|-----------------|-----------------|-----------------|

ENDING

|-----------------|-----------------|-----------------|-----------------|
|*------2---2-2-2-|-------0---------|-------0---------|-0-0-0-0---------|
|*----------------|-2---2-----3-3-2-|-3---3-----3-2-3-|-----------3-2-3-|
|-0---0-----------|-----------------|-----------------|-----------------|

|-----------------|-----------------|-----------------|-------2---0-0---|
|-------2---2-2-2-|-------0---------|-------0---------|-0-0-0-----------|
|-----------------|-2---2-----3-3-2-|-3---3-----3-2-3-|---------------5-|
|-0-0-0-----------|-----------------|-----------------|-----------------|

|-----------------|-----------------|-----------------|-----------------|
|-------2---2-2-2-|-------0---------|-------0---------|-0-0-0-----------|
|-----------------|-2---2-----3-3-2-|-3---3-----3-2-3-|-----------------|
|-0---0-----------|-----------------|-----------------|-------3---2-2-3-|

|-----------------|-----------------|-----------------|-22-00----00-----||
|-------2---2-2-2-|-------0---------|-------0---------|-------44----4-0*||
|-----------------|-2---2-----3-3-2-|-3-3-3-----3-2-3-|----------------*||
|-0-0-0-----------|-----------------|-----------------|-----------------||

|-----------------||
|-----------------||
|-----------------||
|-0---------------||





Comments


Popular L Arc En Ciel tabs & chords
Wind Of Gold Bass Tabs
4th Avenue Cafe Chords
Anata Chords
Farewell Chords
Loreley Chords
New World Chords
Shallow Sleep Hyde Chords
Spirit Dreams Inside Chords
Daybreaks Bell Tabs
Niji Tabs


Song lyrics



↑ Back to top | Tablatures and chords are parodies/interpretations of the original songs. You may use it for private study, scholarship, research or language learning purposes only
© 2014 AZChords.com Contact us | Privacy policy | DMCA | Add/correct tabs | Request tabs | Top 50 tabs