>
 >
Kayleigh Ver

Kayleigh Ver Bass Tabs

L Arc En Ciel - Kayleigh Ver chords, tabs, tablatures, lyrics

Guitar lessons | Add/correct | Request | Top 50 tabs Artists:  A B C D E F G H I J K L M N O P Q R S T U V W X Y Z 0-9

Kayleigh Ver Bass Tabs – L Arc En Ciel

CD, Sheet music, Poster

Do you like Kayleigh Ver? Share with your friends now
Bass Tabs
INTRO

|-----------------|-----------------|-----------------|-----------------|
|-----------------|-----------------|-----------------|-----------------|
|-2---------------|-----------------|-----------------|-----------------|
|-----------------|---------------3/|-7---------------|-----------------|

VERSE

|-----------------|-----------------|-----------------|-----------------|
|*----------------|-----------------|-----------------|-----------5540--|
|*2-----0---------|-------------0---|-2-----0---------|-----------------|
|-----------------|-2-----3---------|---------------2-|---3-3-----------|

|-----------------|-----------------|-----------------|-----------------||
|-----------------|-----------------|-----------------|----------------*||
|-2-----0-----7-\-|-------------0---|-2-----0---------|--------------0-*||
|-----------------|-2-----3---------|---------------2-|---3-3-----3-2---||

PRE-CHORUS

|-----------------|-----------------|-----------------|-----------------|
|-----------------|-----------------|-----------------|-----------5540--|
|-2-----0-----7-\-|-------------0---|-2-----0---------|-----------------|
|-----------------|-2-----3---------|---------------2-|---3-3-----------|

|-----------------|-----------------|-----------------|-----------------|
|-----------------|-----------------|-----------------|-------------5\4-|
|-2-----0-----7-\-|---------------0-|-2-----0---------|-----------------|
|-----------------|-2-----3---------|---------------2-|---3-3-----------|

CHORUS

|-----------------|-----------------|-------------0---|-----------------|
|-0-----0-----7-\-|-0-----0---------|-----------0---4-|-0-----00--------|
|-----------------|-------------0---|-3-2-0-----------|-------------00--|
|-----------------|-----------------|-------3---------|---------2-33----|

|-----------------|-----------------|-------------0---|-----------------|
|-0-----0-----7---|-0-----0---------|-----------0---4-|-0---------------|
|---------------0-|-------------0---|-3-2-0-----------|-----------000-2-|
|-----------------|-----------------|-------3---------|---222-3---------|

|-----------777-\-|-----------------|-------------0---|---------4-664---|
|-0-----0---------|-0-----0-----3---|---------------4-|-0-000---------6-|
|-----------------|---------------0-|-3-2-0-----------|-----------------|
|-----------------|-----------------|-------3---------|-----------------|
                    12   12 11
|-----------------|-------*-*-7-----|-------------0---|-----------------|
|-0-----0-----7-/-|-*-----------7-\-|-----------0---4-|-0---------------|
|-----------------|-----------------|-3-2-0-----------|-----------------|
|-----------------|-----------------|-------3---------|-----------------|

SOLO

|-----------------|-----------------|-----------------|-----------2-0---|
|-----------------|-----------------|-----------------|---------------40|
|-2-----0-----7-\-|-------------0---|-2-----0---------|-----------------|
|-----------------|-2-----3---------|-----------------|-2-----3---------|

|-----------------|-----------------|-----------------|-----------0-----|
|-----------------|-----------------|-----------------|----------0--4-0-|
|-2-----0-----4-0-|-------------0---|-2-----0-----7-\-|----------------4|
|-----------------|-2-----3---------|-----------------|-2-----3---------|

|-----------------|-----------------|-----------------|-----------------|
|-------------7-\-|-----------------|-------------2---|-----------------|
|-2-----0---7-----|---------------0-|-2-----0-------0-|---------------0-|
|-----------------|-2-----3-----3---|-----------------|-2-----3---2-3---|

|-----------------|-----------------|-----------------|-------------0---|
|-----------------|-----------------|-----------------|---------------40|
|-2-----0-----7-\-|---------------0-|-2-----0---4-7-\-|-----------------|
|-----------------|-2-----3---3-3---|-----------------|-2-----3---------|

|-----------------|-----------------|-----------------|-------------0---|
|-------------7-\-|-4-0-------------|-------------7-\-|-4-0-----------4-|
|-2-----0---7-----|---------------0-|-2-----0---7-----|-----------------|
|-----------------|-----2-3-----3---|-----------------|-----2-3---------|

|-----------------|-----------------|-----------------|-----------------|
|-0-----0---------|-0-----0---------|-----------------|-0---------------|
|-------------0---|-------------0---|-3-2-0-----------|-----------------|
|-----------------|-----------------|-------3-----2-0-|-----------------|

BRIDGE

|-----------------|------------6----|-----------------|-----------------|
|-----------------|----------46--6--|-----------------|-----------------|
|-4---------------|---------------4-|-----------------|-----------------|
|-----------------|-----------------|-----------------|---------------4-|

VERSE

|-----------------|-----------------|-----------------|-----------221---|
|-----------------|-----------------|-----------------|--------------2--|
|-4-----2---------|-------0-----2---|-4-----2---------|---0-0-----------|
|-----------------|-4---------------|---------------4-|-----------------|

|-----------------|-----------------|-----------------|-----------------|
|-----------------|-----------------|-----------------|-----------------|
|-4-----2---------|-------0-----2---|-4-----2---------|---0-0-----0--2--|
|-----------------|-4---------------|---------------4-|-----------------|

|-----------------|-----------------|-----------------|-----------221---|
|-------------4---|-------------2---|-----------4-----|--------------2--|
|-4-----2---------|-------0-------2-|-4-----2-----2---|---0-0-----------|
|-----------------|-4---------------|---------------4-|-----------------|

|-----------------|-----------------|-----------------|-----------------|
|-------------4---|-----------------|-----------------|-------------5\4-|
|-4-----2---------|-------0-----2---|-4-----2---------|---0-0-----------|
|-----------------|-4---------------|---------------4-|-----------------|

CHORUS

|-----------------|-----------------|-------------0---|-----------0-1-2-|
|-0-----0---------|-0-----0---------|-----------0---4-|-0-------4-------|
|-------------0---|-------------0---|-3-2-0-----------|--------0--------|
|-----------------|-----------------|-------3---------|-----------------|

|-----------------|-----------------|-----------------|-----------------|
|-0-----0-----7---|-0-----0---------|-----------------|-0---------------|
|---------------0-|-------------0---|-3-2-0-----------|-------------0-2-|
|-----------------|-----------------|-------3-----2-0-|--------02-3-----|

|-----------------|-----------------|-------------0---|-----------------|
|-0-----0-----2---|-0-----0---------|-----------0---4-|-0---------------|
|-----------------|-------------0---|-3-2-0-----------|-----------0---2-|
|-----------------|-----------------|-------3---------|---22--3---------|
                   12 11
|-----------------|-*-*-7-----------|-------------0---|-----------------|
|-0-----0-----7-/-|-------7-\---0---|-----------0---4-|-0-----------7-/-|
|-----------------|-----------------|-3-2-0-----------|-----------------|
|-----------------|-----------------|-------3---------|-----------------|

OUTRO                   15                                  15
  12                  14  17          12                  14  17
|-----------------|-------*---------|-----------------|-------*---------||
|-*---------------|---*-*-----------|-*---------------|---*-*-----------||
|-----------------|-----------------|-----------------|-----------------||
|-----------------|-----------------|-----------------|-----------------||





Comments


Popular L Arc En Ciel tabs & chords
Finale Bass Tabs
In The Air Bass Tabs
Shi No Hai Bass Tabs
4th Avenue Cafe Chords
Anata Chords
Bless Chords
Loreley Chords
New World Chords
Blurry Eyes Tabs
Kasou Part I Tabs


Song lyrics



↑ Back to top | Tablatures and chords are parodies/interpretations of the original songs. You may use it for private study, scholarship, research or language learning purposes only
© 2014 AZChords.com Contact us | Privacy policy | DMCA | Add/correct tabs | Request tabs | Top 50 tabs