» » »

L Arc En Ciel, In The Air Bass tabs (ver.1)

Artists:  A B C D E F G H I J K L M N O P Q R S T U V W X Y Z # 

In The Air Bass tabs (ver.1)

L Arc En Ciel Tabs
 Rating:
4/5 (4 votes)
In The Air lessons Tabs too difficult? Try these video lessons and learn fast
1
                Intro:
|-------------5-\-|
|-----------------|
|-----------------|
|-----------------|

|-----------------|-----------------|---0-0-0-----0---|---------------0-|
|-0---0---0---0---|---0-0---0-0-----|-4---------4---4-|-----------------|
|-----------------|-4-----4-----4-0-|-----------------|-4-4-4-4---0-4---|
|-----------------|-----------------|-----------------|-----------------|

|-----------------|-------2---------|---0-0-------0---|-------0---------|
|---0-0-0---0-0-0-|---0-0---0-0-4-0-|-4-----0---4---4-|---------4-0---0-|
|-4---------------|-4---------------|-----------------|-4-0-4-------4---|
|-----------------|-----------------|-----------------|-----------------|


Verse:
|-----------------|-----------------|-0-----0-----0---|-----------------|
|-4-0-0-4-0-0-4-0-|-4-0-0-4-0-0-4-0-|---0-0---0-0---0-|-------0---------|
|-----------------|-----------------|-----------------|-4-0-4-----4-0-4-|
|-----------------|-----------------|-----------------|-----------------|

|-----------------|-----------------|-0-----0-----0---|-------0---------|
|-4-0-0-4-0-0-4-0-|-4-0-0-4-0-0-4-0-|---0-0---0-0---0-|---------4-0---0-|
|-----------------|-----------------|-----------------|-4-0-4-------4---|
|-----------------|-----------------|-----------------|-----------------|

|-----------------|-----------------|-0-----0-----0---|-----------------|
|-4-0-0-4-0-0-4-0-|-4-0-0-4-0-0-4-0-|---0-0---0-0---0-|-------0---------|
|-----------------|-----------------|-----------------|-4-0-4---4-0---0-|
|-----------------|-----------------|-----------------|-------------4---|


Verse-end1:
|-----------------|-----------------|-0-----0-----0---|-------0---------|
|-4-0-0-4-0-0-4-0-|-4-0-0-4-0-0-4-0-|---0-0---0-0---0-|---------4-0---0-|
|-----------------|-----------------|-----------------|-4-0-4-------4---|
|-----------------|-----------------|-----------------|-----------------|


Pre-chorus1:
|-----------------|-----------------|---------------0-|-2-0---0---------|
|-3-0-0-3-0-0-3-0-|-3-0-0-3-0-0-3-0-|-4-0-0-4-0-0-4---|-----4---4-0---0-|
|-----------------|-----------------|-----------------|-------------4---|
|-----------------|-----------------|-----------------|-----------------|
                                        10  10  10  10    11  11  11  
|-----------------|---------------0-|-7-*-7-*-7-*-7-*-|-7-*-7-*-7-*-7\--|
|-3-0-0-3-0-0-3-0-|-3-0-0-3-0-0-3---|-----------------|-----------------|
|-----------------|-----------------|-----------------|-----------------|
|-----------------|-----------------|-----------------|-----------------|


Chorus:
|-----------------|-----------------|-------1---1-----|-----------------|
|-------2---2-----|-1-2-2-4---2-1-2-|-------------4---|-4-2---1---2-1---|
|-2---2-------2---|-----------------|-----------------|---------------2-|
|-----------------|-----------------|-4---4-----------|-----------------|

|-----------------|-----------------|-----------------|-----------------|
|-----------------|-----------------|-----------------|---------------1-|
|-----------------|-1-3-3-2---0-----|---0-----------0-|-2---0-----0-----|
|-3---3-2---0-2-3-|-------------4-0-|-4---4-0---0-4---|-------4-----4---|

|-----------------|-4---------------|-------------1---|-1---------------|
|-2-2-2-------1-2-|-----2-1---2-1---|-----------0-----|---4-4-2---1-2---|
|-------2---2-----|---------------2-|-----------------|---------------2-|
|-----------------|-----------------|-4---------------|-----------------|

|-----------------|-----------------|
|-----------------|-----------4-/-\-|
|-----------------|-3-3-3-3---------|
|-3---3-2---0-2-3-|-----------------|


--Verse


Verse-end2:
|-----------------|-----------------|-0-----0-----0---|-------0---------|
|-4-0-0-4-0-0-4-0-|-4-0-0-4-0-4-0-4-|---0-4---0-4---0-|---------4-0---0-|
|-----------------|-----------------|-----------------|-4-0-4-------4---|
|-----------------|-----------------|-----------------|-----------------|


Pre-chorus2:
|-----------------|-----------------|---------------0-|-2-0---0---------|
|-3-0-0-3-0-0-3-0-|-3-0-0-3-0-0-3-0-|-4-0-0-4-0-0-4---|-----4---4-0---0-|
|-----------------|-----------------|-----------------|-------------4---|
|-----------------|-----------------|-----------------|-----------------|

|-----------------|-----------------|-------0-2-0---2-|-0---0-----------|
|-3-0-0-3-0-0-3-0-|-3-0-0-3-0-0-3-0-|-4-0-4-------4---|---4---4-0-4-0---|
|-----------------|-----------------|-----------------|---------------4-|
|-----------------|-----------------|-----------------|-----------------|
                                        10  10  10  10    11  11  11  
|-----------------|---------------0-|-7-*-7-*-7-*-7-*-|-7-*-7-*-7-*-7\--|
|-3-0-0-3-0-0-3-0-|-3-0-0-3-0-0-3---|-----------------|-----------------|
|-----------------|-----------------|-----------------|-----------------|
|-----------------|-----------------|-----------------|-----------------|


--Chorus


Bridge:
|-----------------|-----------------|
|-----------------|-----------------|
|---0-----------0-|-0-------0-----0-|
|-4---4-0---0-4---|---0-4-0---0-4---|


--Chorus


Ending:
|-----------------|-----------------|
|-----------------|-----------------|
|---0---0---0---0-|---0---------4/\-|
|-4---4---4---4---|-4---4-2-4-2-----|
                                  11
|-----------------|-------------4/*-||
|-----------------|-----------------||
|-----------------|-----------------||
|-3--------/(12)\-|-9-------\-------||
            
Submit corrections

comments powered by Disqus
↑ Back to top | L Arc En Ciel Bass for In The Air. Lyrics for acoustic guitar and electric guitar. 1 Tablatures and chords are parodies/interpretations of the original songs. You may use it for private study, scholarship, research or language learning purposes only