>
 >
Flower

Flower Bass Tabs

L Arc En Ciel - Flower chords, tabs, tablatures, lyrics

Guitar lessons | Add/correct | Request | Top 50 tabs Artists:  A B C D E F G H I J K L M N O P Q R S T U V W X Y Z 0-9

Flower Bass Tabs – L Arc En Ciel

CD, Sheet music, Poster

Do you like Flower? Share with your friends now
Bass TabsChordsTabs
Intro:
|-----------------|
|-----------------|
|-----------------|
|-------3-/(10)-\-|


Pre-verse:
|-----------------|-----------------|-----------------|-----------------|
|-----------------|-----------------|-----------------|-----0-----------|
|---------------3-|---3-2-2-0-0-----|---------------3-|---2---3-3-2-----|
|-3---3---3-2-3---|-------------3-2-|-3---3---3-2-3---|-------------3-2-|

|-----------------|-----------------|-----------------|-----------------|
|-----------------|-------------0---|-----------------|-----------------|
|---------------3-|---3-2-3---2-----|-0-0-----0-0-----|-0-0-----0---0-2-|
|-3---3---3-2-3---|-----------------|-------3-------3-|-------3---3-----|

|-----------------|-----------------|
|-----------------|-------0---------|
|-3-3-----3-3-----|-3-2-3---3-2-----|
|-------3-------3-|-------------3-2-|


Verse:
|-----------------|-----------------|-----------------|-----------------|
|-----------------|-----------------|-0-----0---0-0---|-----------------|
|-----------------|-----------2---3-|-----------------|-6-----6-----6---|
|-3-----3---3---2-|-3-----3---------|-----------------|-----------7-----|

|-----------------|-----------------|-----------------|---2---0---------|
|-----------------|-----------------|-----------------|-0---------4-0---|
|-7-----------7-\-|-5-----0---0-5-\-|-3-----2---3-3---|-----------------|
|-------7---7-----|-----------------|-----------------|-----------------|

|-----------------|-----------------|-----------------|-----------------|
|-----------------|-----------------|-0-----0---0-0---|-----------------|
|-----------------|-----------2---3-|-----------------|-6-----6-----6---|
|-3-----3---3---2-|-3-----3---------|-----------------|-----------7-----|
                                                       
|-----------------|-------2---2-----|-----------------|-------0---------|
|-----------------|-----------------|-----------------|---7-------4-0---|
|-7-----------7-\-|-5-----------5-\-|-3-----2---3-3-/-|-----------------|
|-------7---7-----|-----------------|-----------------|-----------------|


Pre-chorus:
|-----0---7-5-4-5-|---5-5-7-5-4---0-|-----0---7-5-4-5-|---4-5-4---0-----|
|-----------------|-------------7---|-----------------|---------7---4-0-|
|-3-----3---------|-----------------|-3-----3---------|-----------------|
|-----------------|-----------------|-----------------|-----------------|

|-------4---------|-----------------|-----------------|-0-----2---0-----|
|-2---------------|-----------2-----|-0---------0---4-|---4-0-------4-0-|
|-----------------|-------2-----2---|-------0---------|-----------------|
|-------------3---|-0---------------|-----------------|-----------------|

|-----0---7-5-4-5-|---5-5-7-5-4---0-|-----0---7-5-4-5-|---4-5-4---0---0-|
|-----------------|-------------7---|-----------------|---------7---4---|
|-3-----3---------|-----------------|-3-----3---------|-----------------|
|-----------------|-----------------|-----------------|-----------------|


Pre-chorus-2:
|-------0-----7---|-7-0-------0-----|-----------4/7---|-6-7-7-6-7-7-6-7-|
|-2---------------|-------4-----4-0-|-----------------|-----------------|
|-----------------|-----------------|-3-3-3-2---------|-----------------|
|-----------------|-----------------|-----------------|-----------------|

|-6-\-------------|
|---------0-------|
|------------3--2-|
|-----------------|


Chorus:
|-------0---0-7---|-------------5---|-------------4---|-----------------|
|-2---2-----------|-0---0-4---4-----|-------2---2-----|-----------------|
|-----------------|-----------------|-3---3-----------|-2---2-3---3-2-/-|
|-----------------|-----------------|-----------------|-----------------|

|-----------------|-----------------|-----------------|-----------------|
|-------------2---|-0---0-----------|-----------------|-----------------|
|-----------------|-------3---2-2---|-3---3-2---2-0---|-----------------|
|-0---0-3---3-----|-----------------|-----------------|-3---3-2---3-/-\-|

|-------0---0-----|-----------------|-----------------|-----------------|
|-----------------|-----------------|-----------------|-----------------|
|-3-----------3---|-2---2-------2---|-0---0-2---2-0---|-------------0-2-|
|-----------------|-------3---3-----|-----------------|-3---2-3---3-----|

|-------0---0-----|-----------------|-------------2---|-2---------------|
|-----------------|-----------------|-------2---2-----|---2-------------|
|-3---3-------3---|-2---2-------2---|-0---------------|-------0-----0-2-|
|-----------------|-------3---3-----|-----------------|-----------3-----|

|-------0---0-7---|-7-5---4---5-4-0-|
|-----------------|-----------------|
|-3---------------|-----------------|
|-----------------|-----------------|


--Pre-verse

--Verse

--Pre-chorus


Pre-chorus-3:      12                                  
|-------0-----12--|-*-0-------0-----|-------------2-/-|-7-----7-----7---|
|-2---------------|-------4-----4-0-|-----------------|-----------------|
|-----------------|-----------------|-3-----2---3-----|-----------------|
|-----------------|-----------------|-----------------|-----------------|

|-6---6-\---------|
|---------0-------|
|------------3--2-|
|-----------------|
                            ending
                     -|-7-5-5-4---0---0-|
--Chorus  -------->  -|-------------4---|
                     -|-----------------|
                     -|-----------------|

Bridge:             10          10
|-----------------|-----------------|-----------------|-------------0---|
|-------------5-/-|-*-----------*---|-9---------------|-----7-9---7-----|
|-3---------------|-----------------|-----------------|-----------------|
|-----------------|-----------------|-----------------|---------------7-|

|-----------------|-----------------|-----2---0-------|-----0-0---------|
|-----------------|-----------------|-0-4---0-----0-4-|-4-0-----0-4-----|
|-----------------|-----------------|-----------------|-------------5-\-|
|-5---------------|---------/(12)-\-|-----------------|-----------------|
          10                10
|-----------------|-----------12----|-----------------|-----------------|
|*----------------|-----------------|-----------------|-----------------|
|*----5-/-*---\---|-----5-/-*h*-\---|-----4-/-9---\---|-----4-/-9---7-\-|
|-3---------------|-3---------------|-2---------------|-2---------------|
                12
|-----------------|-----------0-----|-----------------|-----------------||
|-----------------|-----------------|-----------------|---4-4---4---4-5*||
|-----2-/-7---/-*-|-----2-/-7---7-\-|-----4-/-9---\---|----------------*||
|-0---------------|-0---------------|-2---------------|-2-----2---2-----||

|-----------------|-----------------|-----------------|-----------------|
|-----------------|-----------------|-----------------|-----------------|
|-----------------|-----------------|-----------------|-----------------|
|-3---3---3-----3-|-----3---3-3-3-\-|-2-2-2-2-2-2-2-2-|-2-2-2-2-2-2-2-2-|

|-----------------|-----------------|-----------------|-----------------|
|-----------------|-0-0-0-0-0-0-0-0-|-----------------|-0-0-------------|
|-----------------|-----------------|-3-3-3-3-3-3-/-\-|-------3-3---2-2-|
|-0-0-0-0-0-0-0-0-|-----------------|-----------------|-----------------|

|-----------------|-----------------|
|-----------------|---------0--0--0-|
|---3-3-\---------|-----------------|
|-----------------|-----------------|


Chorus-2:
|-----------------|-----------------|-----------0-----|-----------------|
|-2-/-9-----------|-----------------|-----------------|-----------------|
|-----------------|-5---5-5---5-5-\-|-3---3-3-----5-\-|-2---2-3---3-5-/-|
|-------0---0-0---|-----------------|-----------------|-----------------|

|-----------------|-----------------|-----------------|---0-0-0-2-0---0-|
|-------------2---|-----------------|-----------------|-------------4---|
|-----------------|-5---5-5---5-5-\-|-3---3-3---3-3---|-----------------|
|-0-----3---------|-----------------|-----------------|-3---------------|

|-------0---0-----|-----------------|-----------------|-----------------|
|-----------------|-----------------|-----------------|-----------------|
|-3---2-------3---|-2---2-------2---|-0---0-2---2-0---|-------------0-2-|
|-----------------|-------3---3-----|-----------------|-3---2-3---3-----|

|-------0---0-----|-----------------|-----------------|-6-7-7---4-------|
|-----------------|-----------------|---------------0-|-------6---7---0-|
|-3---3-------3---|-2---2-----2-2---|-------2---3-3---|-------------4---|
|-----------------|-------3---------|-5-\-4-----------|-----------------|

                           ending
--Chorus            -|-----------------|
                    -|-----------------|
--Pre-verse ----->  -|-3-3-2-2-0-0-----|
                    -|-------------3-2-|

Ending:
|-----------------||
|-----------------||
|-----------------||
|-3~~~~-----------||





Comments


Popular L Arc En Ciel tabs & chords
Finale Bass Tabs
Heavens Drive Bass Tabs
In The Air Bass Tabs
Kayleigh Ver Bass Tabs
Wind Of Gold Bass Tabs
Fate Chords
4th Avenue Cafe Intro Tabs
Daybreaks Bell Tabs
Heavens Drive Tabs
Perfect Blue Ken Part Tabs


Song lyrics



↑ Back to top | Tablatures and chords are parodies/interpretations of the original songs. You may use it for private study, scholarship, research or language learning purposes only
© 2014 AZChords.com Contact us | Privacy policy | DMCA | Add/correct tabs | Request tabs | Top 50 tabs