» » »

L Arc En Ciel, Finale Bass tabs (ver.1)

Artists:  A B C D E F G H I J K L M N O P Q R S T U V W X Y Z # 

Finale Bass tabs (ver.1)

L Arc En Ciel Tabs
 Rating:
4/5 (4 votes)
Finale lessons Tabs too difficult? Try these video lessons and learn fast
1
                VERSE

|-----------------|-----------------|-----------------|-----------------|
|-----------------|-----------------|-----------------|-----------------|
|-0-------------0-|-1-------------1-|-2-------------2-|-1---------------|
|-----------------|-----------------|-----------------|-----------------|

|-----------------|-----------------|-----------------|-----------------||
|*----------------|-----------------|-----------------|----------------*||
|*0-------------0-|-1-------------1-|-2-------------2-|-1---------/---\*||
|-----------------|-----------------|-----------------|-----------------||

|-----------------|-----------------|-----------------|-----------------|
|-0-0-0-0-0-0-0---|-----------------|-----------------|-----------------|
|-----------------|-----------------|-----------------|-----------------|
|---------------2-|-1-1-1-1-1-1-1-1-|-0-0-0-0-0-0-0-0-|-3-3-3-3-3-3-3-3-|

|-----------6---7-|---6-------------|
|-----------------|-------7---------|
|-0---------------|-----------0-5-\-|
|-----------------|-----------------|

CHORUS
                                            10
|-----------------|-----------------|----10-*---9-----|-----------------|
|-0---0-0-0-0-0-0-|-------2---0-0---|-----*---------7-|-----------------|
|-----------------|-0-0-0---------0-|-8-8-------------|-8-8-7---------0-|
|-----------------|-----------------|-----------------|-------8---6-6---|

|-----------------|-----0-----------|-----------------|-----------------|
|-----------------|-------3---2-----|-----------------|-----2-0---------|
|-1---1-1-1-1-1-1-|---3-----------3-|-----------------|-4-0-------4---0-|
|-----------------|-1---------------|-3---3-3-3-3-3-3-|-----------------|

|-------2---0-0---|-0---------------|-----5-3---2-----|-----------------|
|-0---0---------3-|-----3-2---------|---3-----------3-|-----------------|
|-----------------|-----------3---3-|-1---------------|-----------------|
|-----------------|-----------------|-----------------|-1-1-1-0---0-0-1-|

|-----------------|-----------------|-----------------|---------0-------|
|-----------------|-----------------|-----------------|---2-------3-2---|
|-1---1-1---1-1-1-|-----------------|-1-1-1-1---1-1-1-|-3-----2-------3-|
|-----------------|-1-1-1-1---1-1-1-|-----------------|-----------------|

BRIDGE

|-----------------|-----------------|-----------------|-----------------|
|-----------------|-----------------|-----------------|-----------------|
|-0-0-0-0-0-0---0-|-1-1-1-1-1-1---1-|-2-2-2-2-2-2---2-|-1-1-1-1-1-1-----|
|-----------------|-----------------|-----------------|-----------------|
                                                        13
|-----------------|-----------------|-----------------|-----------------|
|-----------------|-----------------|-----------------|-----------------|
|-0-0-0-0-0-0---0-|-1-1-1-1-1-1---1-|-2-2-2-2-2-2-/---|-*-----------\---|
|-----------------|-----------------|-----------------|-----------------|

VERSE

|-----------------|-----------------|-----------------|-----------------||
|*----------------|-----------------|-----------------|----------------*||
|*0-------------0-|-1-------------1-|-2-------------2-|-1--------------*||
|-----------------|-----------------|-----------------|-----------------||

|-----------------|-----------------|-----------------|-----------------|
|-----------------|-----------------|-----------------|-----------------|
|-0-------------0-|-1-------------1-|-2-------------2-|-1---------/---\-|
|-----------------|-----------------|-----------------|-----------------|

|-----------------|-----------------|-----------------|-----------------|
|-0-0-0-0-0-0-0---|-----------------|-----------------|-----------------|
|-----------------|-----------------|-----------------|-----------------|
|---------------2-|-1-1-1-1-1-1-1-1-|-0-0-0-0-0-0-0-0-|-3-3-3-3-3-3-3-3-|

|---------6-7---6-|-----------------|
|-------7---------|---7-------------|
|-0---------------|-------7---0-5-\-|
|-----------------|-----------------|

CHORUS

|-------2---0-----|-----------------|-----------------|-----------------|
|-0---0---------3-|-------2---0-----|-----------------|-3-2-3-----------|
|-----------------|-0-0-0-------3---|-1-1-1-1---1-1-1-|-------3---1-0-3-|
|-----------------|-----------------|-----------------|-----------------|

|-----------------|-----------------|-----------------|-----------------|
|-----------------|-----------------|-----------0-0-0-|-----5-3---2-----|
|-1---1-1---1-1-1-|-----------------|-------1---------|-4-0-----------4-|
|-----------------|-1---1-0---1-1-1-|-3---3-----------|-----------------|

|-----------0-2---|-----------------|-----5-3---2---3-|-----------------|
|-0-0-0-3---------|-------2---0-----|---3-------------|-----------------|
|-----------------|-0-0-0-------3---|-1---------------|-----------------|
|-----------------|---------------3-|-----------------|-1-1-1-1---0-0-1-|

|-----------------|-----------------|-----------------|---0-0-----------|
|-----------------|-----------------|-----------------|-------3---2-----|
|-1---1-1---1-1-1-|-----------------|-1-1-1-1---0-1-3-|-3-----------3---|
|-----------------|-1-1-1-1---1-1-1-|-----------------|-----------------|

SOLO

|-----------------|-----------------|-----------------|-----------------||
|*----------------|-----------------|-----------------|----------------*||
|*0-0-0-0-0-0-0-0-|-1-1-1-1-1-1-1-1-|-2-2-2-2-2-2-2-2-|-1-1-1-1-1-1-1-1*||
|-----------------|-----------------|-----------------|-----------------||

|-----------------|-----------------|-----------------|-----------------|
|-0-0-0-0-0-0-0---|-----------------|-----------------|-----------------|
|-----------------|-----------------|-----------------|-----------------|
|---------------2-|-1-1-1-1-1-1-1-1-|-0-0-0-0-0-0-0-0-|-3-3-3-3-3-3-3-3-|

|-----------------|-----------------|-----------------|-----------------|
|-0-0-0-0-0-0-0-0-|-3-3-3-3-3-3-3-3-|-----------------|-5-5-5-5-5-------|
|-----------------|-----------------|-----------------|-----------5-----|
|-----------------|-----------------|-0-0-0-0-0-0-0-0-|-------------3-\-|

PRE-CHORUS

|-----------------|-----------------|-----------------|-----------------|
|-----------------|-----------------|-------2---2-----|---2-2-2-----0-2-|
|-----------------|-----------------|-----------------|-----------2-----|
|-3-3-3-3-3-3-3-3-|-3-3-3-3-3-3-3-3-|-0-0-0-------0---|-0---------------|

|---------------2-|-2---3-2---0---0-|-----------------|-----------------|
|-----------0-0---|-----------------|-2---2-----0-2-2-|-2-2---2---2-2---|
|-------1---------|-----------------|-------2---------|-----2---------2-|
|-3---3-----------|-----------------|-----------------|-----------------|

|-----------------|-----------------|-----------------|-----------------|
|-----------------|-----------------|-----------------|-----------------|
|-0-0-0-0-0-0-0-0-|-0-0-0-0-0-------|-0---------------|-----------------|
|-----------------|-----------5-/-\-|-------3-----1---|---0-----3--3--3-|

|---------|
|---------|  4/8
|---------| <---
|---------|

CHORUS

|-------2---0-----|-0-0-------------|-----5-3---2---3-|-----------------|
|-0-------------3-|-----3-2---------|---3-------------|-3-2-2-----------|
|-----3-----------|-----------3---3-|-1---------------|-------3---------|
|-----------------|-----------------|-----------------|-----------3-3-3-|

|-----5-3---2-----|-----------------|-----------------|-----------------|
|---3-----------3-|-----------------|-----------0-0-0-|-----2-0---------|
|-1---------------|-----------------|-------1---------|-4---------4-4-0-|
|-----------------|-1-1-1-1---0-1-0-|-3---3-----------|---3-------------|

|-----------------|-----------------|-----5-3---2---3-|-----------------|
|-0-0-0-0---0-0-0-|-------2---2-----|---3-------------|-3-3-3-----------|
|-----------------|-0-0-0-------0---|-1---------------|-------3---0-0-3-|
|-----------------|-----------------|-----------------|-----------------|

|-----------------|-----------------|-----------------|---------------0-|
|-----------------|-----------------|-----------------|---2-----3---3---|
|-1---1-1---1-1-1-|-----------------|-1---1-1---1-1-1-|-3-----3---3-----|
|-----------------|-1-1-1-1---0-1-0-|-----------------|-----------------|

|-4/5---5-5-5-5-5-|
|-----------------|
|-----------------|
|-----------------|

|-------2---0-----|-0-0-------------|-----5-3---2-----|-----------------|
|-0-0-0---------3-|-----3-2---------|---3-----------3-|-3-3-3-----------|
|-----------------|-----------3---3-|-1---------------|-------3---1-1-0-|
|-----------------|-----------------|-----------------|-----------------|

|-----------------|-----------------|-----------------|-----------------|
|-----------------|-----------------|-------------0-0-|-------2---0-----|
|-1---1-1-1-1-1-1-|-----------------|-------1-1-1-----|-4-0-0-------4-0-|
|-----------------|-1-1-1-1-1-1-1-1-|-3-3-3-----------|-----------------|

|-------2---------|-----------------|-------5---3---2-|-5-5-5-----------|
|-0-0-0---------0-|-------2---2-----|-----3-----------|-------3---2-2-3-|
|-----------------|-0-0-0-------0---|-1-1-------------|-----------------|
|-----------------|-----------------|-----------------|-----------------|

|-----------------|-----------------|-----------------|---------0-------||
|-----------------|-----------------|-----------------|---2-------3-2---||
|-1-1-1-1-1-1-1-1-|-----------------|-1-1-1-1-1-1-1-1-|-3-----3-------3-||
|-----------------|-1-1-1-1-1-1-1-1-|-----------------|-----------------||
            
Submit corrections

comments powered by Disqus
↑ Back to top | L Arc En Ciel Bass for Finale. Lyrics for acoustic guitar and electric guitar. 1 Tablatures and chords are parodies/interpretations of the original songs. You may use it for private study, scholarship, research or language learning purposes only