>
 >
All Dead

All Dead Bass Tabs

L Arc En Ciel - All Dead chords, tabs, tablatures, lyrics

Guitar lessons | Add/correct | Request | Top 50 tabs Artists:  A B C D E F G H I J K L M N O P Q R S T U V W X Y Z 0-9

All Dead Bass Tabs – L Arc En Ciel

CD, Sheet music, Poster

Do you like All Dead? Share with your friends now
Bass Tabs
INTRO

|-----------------|-----------------|
|-----------------|-----------------|
|-----------------|-----------------|
|-------------3-/-|---(10)----\-----|

PRE-VERSE

|-----------------|-----------------|-----------------|-----------------|
|-----------------|-----------------|-----------------|-----------------|
|-2---2---2---2-2-|---2-2---2---/---|-5---5---5---5-5-|---5-5---5---\---|
|-----------------|-----------------|-----------------|-----------------|

|-----------------|-----------------|-----------------|-----------------|
|-----------------|-----------------|-----------------|-----------------|
|-0---0---0-------|-----------------|-----------------|-----------------|
|-------------5-5-|---5-5---5---\---|-3---3---3---3-2-|---2-2---/-(9)-\-|

|-----------------|-----------------|-----------------|-----------------|
|-----------------|-----------------|-----------------|-----------------|
|-2---2---2---2-2-|---2-2---2---/---|-5---5---5---5-5-|---5-5---5---\---|
|-----------------|-----------------|-----------------|-----------------|

|-----------------|-----------------|-0---------------|-----------------|
|-----------------|---------0---2---|-----4---2---4-2-|---2-0-------0---|
|-0---0---0---5-5-|---5-4-----------|-----------------|---------4-------|
|-----------------|-----------------|-----------------|-----------------|

VERSE

|-----------------|-----------------|-----------------|-----------------|
|-----------------|-----------------|-----------------|-----------------|
|-2---2-------2-2-|---2-----2-------|-5---5---0---0-5-|---5-0---4---5---|
|---------2-------|-----2-------2---|-----------------|-----------------|

|-----------------|-----------------|-----------------|-----------------|
|---------2---0-0-|---------0-------|-----------------|-----------------|
|-0---------------|---4-4-------4---|-----------------|-----------------|
|-----3-----------|-----------------|-3---3---2---3-3-|---3-2---3---2---|

|-----------------|-----------------|-----------------|-----------------|
|-----------------|-----------------|-----------------|-----------------|
|-2---2-------2-2-|---2-----2-------|-5---5---0---0-5-|---5-0---4---5---|
|---------2-------|-----2-------2---|-----------------|-----------------|

|-----------------|-----------------|-0---------------|-----------------|
|---------2---0-0-|---------0---2---|-----4---2---4-2-|---2-0-------0---|
|-0---------------|---4-4-----------|-----------------|---------4-------|
|-----3-----------|-----------------|-----------------|-----------------|

BRIDGE

|-----------------|-----------------|-----------------|-----------------|
|---------4-------|-4---------------|-------2---2-----|-----0-----------|
|-2---------------|-----2---2---0---|---4-------------|---------4---0---|
|-----------------|-----------------|-----------------|-----------------|

|-----------------|-----------------|-----7---5---4---|-5---4-----------|
|-----------------|-----------------|-4---------------|---------5-\-----|
|-3---------------|-/---(15)----\---|-----------------|-----------------|
|-----------------|-----------------|-----------------|-----------------|

PRE-VERSE

|-----------------|-----------------|-----------------|-----------------|
|-----------------|-----------------|-----------------|-----------------|
|-2---2---2---0-2-|---0-2---2---/---|-5---5---5---0-5-|---0-5---5---\---|
|-----------------|-----------------|-----------------|-----------------|

|-----------------|-----------------|-----------------|-----------------|
|-----------------|-----------------|-----------------|-----------------|
|-0---0---0-------|-----------------|-----------------|-----------------|
|-------------0-5-|---5-5---5---\---|-3---3---3---3-2-|---2-2---/-(9)-\-|

|-----------------|-----------------|-----------------|-----------------|
|-----------------|-----------------|-----------------|-----------------|
|-2---2---2---0-2-|---0-2---2---/---|-5---5---5---0-5-|---0-5---5---\---|
|-----------------|-----------------|-----------------|-----------------|

|-----------------|-----------------|-0---------------|-----------------|
|-----------------|---------0---2---|-----4---2---4-2-|---2-0-------0---|
|-0---0---0---5-5-|---4-4-----------|-----------------|---------4-------|
|-----------------|-----------------|-----------------|-----------------|

VERSE

|-----------------|-----------------|-----------------|-----------------|
|-----------------|-----------------|-----------------|-----------------|
|-2---2-------2-2-|---2-----2-------|-5---0---4---5-5-|---5-0---4---5---|
|---------2-------|-----2-------2---|-----------------|-----------------|

|-----------------|-----------------|-----------------|-----------------|
|-------------0-0-|---0---------0---|-----------------|-----------------|
|-0---0---4-------|-----4---4-------|-----------------|-----------------|
|-----------------|-----------------|-3---3---3---3-2-|---2-2---/-(9)-\-|

|-----------------|-----------------|-----------------|-----------------|
|-----------------|-----------------|-----------------|-----------------|
|-2---2-------2-2-|---2-----2-------|-5---0---4---5-5-|---5-0---4---5---|
|---------2-------|-----2-------2---|-----------------|-----------------|

|-----------------|-----------------|-0---------------|-----------------|
|-----2---2---0-0-|---------0---2---|-----4---2---4-2-|---2-0-------0---|
|-0---------------|---4-4-----------|-----------------|---------4-------|
|-----------------|-----------------|-----------------|-----------------|

VERSE

|-----------------|-----------------|-----------------|-----------------|
|-----------------|-----------------|-----------------|-----------------|
|-2-------2-----2-|---2-----2---4---|-5---0---4---0-5-|---5-0---4---5---|
|-----2-------2---|-----2-----------|-----------------|-----------------|

|-----------------|-----------------|-----------------|-----------------|
|-----2---0-----0-|---0-------------|-----------------|-----------------|
|-0-----------4---|-----4---0-------|-----------------|-----------------|
|-----------------|-------------2---|-3---3---3---2-3-|---3-3---/-(9)-\-|

|-----------------|-----------------|-----------------|-----------------|
|-----------------|-----------------|-----------------|-----------------|
|-2-------2-----2-|---2-----2---4---|-5---0---4---0-5-|---5-0---4---5---|
|-----2-------2---|-----2-----------|-----------------|-----------------|

|-----------------|-----------------|-0---------------|-----------------|
|-----2---0-----0-|---------0---2---|-----4---2---4-2-|---2-0-----------|
|-0-----------4---|---4-4-----------|-----------------|---------4---0---|
|-----------------|-----------------|-----------------|-----------------|

CHORUS

|-----------------|-----------------|-----------------|-----------------|
|-0-------0-------|-------------0---|-0-------4---2---|-----0-------0---|
|-------------0---|-----0---4-------|-----------------|---------4-------|
|-----------------|-----------------|-----------------|-----------------|

|-----------------|-----------------|-6---4---4-------|-----------------|
|-----------------|-----------------|-------------0---|-------------0---|
|-------------4---|-----4---2---4---|-----------------|-----4---4-------|
|-2-------2-------|-----------------|-----------------|-----------------|

|-----------------|-----------------|-----------------|-----------------|
|-----4---4---2-2-|---0-0-------0---|-----2---2---0-0-|---------0-------|
|-2---------------|---------4-------|-0---------------|---4-4-------4---|
|-----------------|-----------------|-----------------|-----------------|

|-----------------|-----------------|-----------------|-----------------|
|-----------------|-----------------|-----------------|-----------------|
|-----------------|-----------------|-----------------|-----------------|
|-3---2---3---2-3-|---3-2---3---2---|-3---2---3---2-3-|---3-2---3---2---|

|-----------------|-----------------|-----------------|-----------------|
|-0-------0-------|-------------0---|-0-------4---2---|-----0-------0---|
|-------------0---|-----0---4-------|-----------------|---------4-------|
|-----------------|-----------------|-----------------|-----------------|

|-----------------|-----------------|-6---4---4-------|-----------------|
|-----------------|-----------------|-------------0---|-------------0---|
|-------------4---|---------2---4---|-----------------|-----4---4-------|
|-2-------2-------|-----2-----------|-----------------|-----------------|

|-----------------|-----------------|-6---4---4---6-4-|-----------------|
|-----4---4---2-2-|---0-0-------0---|-----------------|---4-4---0-------|
|-2---------------|---------4-------|-----------------|-------------4---|
|-----------------|-----------------|-----------------|-----------------|

|-----------------|-----------------|-----------------|-----------------|
|-----------------|-----------------|-----0-------0---|-----0-------0---|
|-----------------|-----------------|-----------------|-----------------|
|-3---2---3---2-3-|---3-2---3---2---|-3-------3-------|-3-------3-------|

BRIDGE

|-----------------|-----------------|-----------------|-----------------|
|---------4-------|-4---------------|-------2---2-----|-----0-----------|
|-2---------------|-----2---2---0---|---4-------------|---------4---0---|
|-----------------|-----------------|-----------------|-----------------|

|-4-----------4---|-4---------4---4-|-4---4---4---4---|-4---4---4---\---|
|-----------------|-----------------|-----------------|-----------------|
|-----------------|-----------------|-----------------|-----------------|
|-----------------|-----------------|-----------------|-----------------|

SOLO

|-----------------|-----------------|-----------------|-----------------|
|-----------------|-----------------|-----------------|-----------------|
|-2---2---2---2-2-|---2-2---2---2-2-|-5---5---5---5-5-|---5-5---5---\---|
|-----------------|-----------------|-----------------|-----------------|

|-----------------|-----------------|-----------------|-----------------|
|-----------------|-----------------|-----------------|-----------------|
|-0---0---0-------|-----------------|-----------------|-----------------|
|-------------5-5-|---5-5---5---\---|-3---3---3---2-3-|---3-3---/-(9)-\-|

|-----------------|-----------------|-----------------|-----------------|
|-----------------|-----------------|-----------------|-----------------|
|-2---2---2---0-2-|---0-2---2---4-4-|-5---5---5---0-5-|---0-5---5---\---|
|-----------------|-----------------|-----------------|-----------------|

|-----------------|-----------------|-0---------------|-----------------|
|-----------------|-----------------|-----4---2---4-2-|---2-0-------0---|
|-0---0---0-------|-----------------|-----------------|---------4-------|
|-------------5-5-|---5-5---5---\---|-----------------|-----------------|

|-----------------|-----------------|-----------------|-----------------|
|-----------------|-----------------|-----------------|-----------------|
|-2-------2-----2-|---2-----2---4---|-5---0---4---0-5-|---5-0---4---5---|
|-----2-------2---|-----2-----------|-----------------|-----------------|

|-----------------|-----------------|-----------------|-----------------|
|-----2---0-----0-|---0-------------|-----------------|-----------------|
|-0-----------4---|-----4---0-------|-----------------|-----------------|
|-----------------|-------------2---|-3---3---3---2-3-|---3-3---/-(9)-\-|

|-----------------|-----------------|-----------------|-----------------|
|-----------------|-----------------|-----------------|-----------------|
|-2-------2-----2-|---2-----2---4---|-5---0---4---0-5-|---5-0---4---5---|
|-----2-------2---|-----2-----------|-----------------|-----------------|

|-----------------|-----------------|-0---------------|-----------------|
|-----2---0-----0-|---------0---2---|-----4---2---4-2-|---2-0-----------|
|-0-----------4---|---4-4-----------|-----------------|---------4---0---|
|-----------------|-----------------|-----------------|-----------------|

CHORUS

|-----------------|-----------------|-----------------|-----------------|
|-0-------0-------|-0-------0-------|-0-------0-------|-0-------0-------|
|-----------------|-----------------|-----------------|-----------------|
|-----------------|-----------------|-----------------|-----------------|

|-----------------|-----------------|-----------------|-----------------|
|-----------------|-----------------|-0---2---0-------|-0---------------|
|-----------------|-------------4---|-------------4---|-----4---2---0---|
|-2-------2-------|-2-------2-------|-----------------|-----------------|

|-----------------|-----------------|-----------------|---0-0-----------|
|-----4---4---2-2-|---0-0-------0---|-----2---2---4-4-|---------4---2---|
|-2---------------|---------4-------|-0---------------|-----------------|
|-----------------|-----------------|-----------------|-----------------|

|-----------------|-----------------|-----------------|-----------------|
|-----------------|-----------------|-----------------|-----------------|
|-----------------|-----------------|-----------------|-----------------|
|-3---2---3---2-3-|---3-2---3---2---|-3---2---3---2-3-|---3-2---3---2---|

|-----------------|-----------------|-----------------|-----------------|
|-0-------0-------|-------------0---|-0-------2---2---|-----0-------0---|
|-------------0---|-----0---4-------|-----------------|---------4-------|
|-----------------|-----------------|-----------------|-----------------|

|-----------------|-----------------|-6---6---6---6---|-----4-----------|
|-4-----------4---|---------4---4---|-----------------|---------7---8---|
|---------4-------|-----4-----------|-----------------|-----------------|
|-----------------|-----------------|-----------------|-----------------|
      11  11
|-----*---*---9-9-|---7-7---6---7---|-----0---0---2-0-|-----------------|
|-9---------------|-----------------|-7---------------|---4-4---2---0---|
|-----------------|-----------------|-----------------|-----------------|
|-----------------|-----------------|-----------------|-----------------|

|-----------------|-----------------|-----------------|-----------------|
|-----------------|-----------------|-----------------|-----------------|
|-----------------|-----------------|-----------------|-----------------|
|-3---2---3---2-3-|---3-2---3---2---|-3---2---3---2-3-|---3-2---3---2---|

|-----------------|-----------------|-----------------|-----------------|
|-0-------0-------|-------------0---|-0-------2---2---|-----0-------0---|
|-------------0---|-----0---4-------|-----------------|---------4-------|
|-----------------|-----------------|-----------------|-----------------|

|-----------------|-----------------|-----6---6---6---|-----4-----------|
|-4-------4-------|---------4---4---|-----------------|---------7---8---|
|-------------4---|-----4-----------|-4---------------|-----------------|
|-----------------|-----------------|-----------------|-----------------|
      11  11                                     11 11   12 12  11
|-----*---*---9-9-|---7-7---6---7---|-----9---9---*-*-|---*-*---*---9---|
|-9---------------|-----------------|-7---------------|-----------------|
|-----------------|-----------------|-----------------|-----------------|
|-----------------|-----------------|-----------------|-----------------|

|-0-------0-----0-|---0-----0-------|-----------------|-----------------|
|-----4-------4---|-----4-------4---|-5---5---5---5-5-|---5-5---5---\---|
|-----------------|-----------------|-----------------|-----------------|
|-----------------|-----------------|-----------------|-----------------|

PRE-ENDING

|-----------------|-----------------|-----------------|-----------------|
|-----------------|-----------------|-----------------|-----------------|
|-2---2---2---2-2-|---2-2---2---/---|-5---5---0---4-5-|---5-0---4---5---|
|-----------------|-----------------|-----------------|-----------------|

|-----------------|-----------------|-----------------|-----------------|
|-------------0-2-|---0-0-------0---|---------0-------|-----------------|
|-0---0---4-------|---------4-------|-----------------|-----------------|
|-----------------|-----------------|-3---3-------3-2-|---2-2---/-(9)-\-|

|-----------------|-----------------|-----------------|-----------------|
|-----------------|-----------------|-----------------|-----------------|
|-2---2-------2-2-|---2-----2---4---|-5---0---4---5-5-|---5-0---4---5---|
|---------2-------|-----2-----------|-----------------|-----------------|

|-----------------|-----------------|-0---------------|-----------------|
|---------2---0-0-|---------0-0-2---|-----4---2---4-2-|---2-0-------0---|
|-0---------------|---4-4-----------|-----------------|---------4-------|
|-----------------|-----------------|-----------------|-----------------|

ENDING

|-----------------|-----------------|-----------------|-----------------|
|*----------------|-----------------|-----------------|-----------------|
|*2-------2-----2-|---------2-------|-5---0---5---0-5-|---5-0---4---5---|
|-----2-------2---|---2-2-------2---|-----------------|-----------------|

|-----------------|-----------------|-----------------|-----------------|
|---------0---2-2-|---0-0-------0---|---------0-------|-----------------|
|-0---4-----------|-------4-4-------|-----------------|-----------------|
|-----------------|-----------------|-3---3-------2-2-|---2-2-2-/-(9)-\-|

|-----------------|-----------------|-----------------|-----------------|
|-----------------|-----------------|-----------------|-----------------|
|-2-------2-----2-|---2-----2---4---|-5---0---4---0-5-|---5-0---4---5---|
|-----2-------2---|-----2-----------|-----------------|-----------------|

|-----------------|-----------------|-0---------------|-----------------||
|-----2---0-----0-|---------0-0-2---|-----4---2---4-2-|---2-0-------0--*||
|-0-----------4---|---4-4-----------|-----------------|---------4------*||
|-----------------|-----------------|-----------------|-----------------||

|-----------------||
|-----------------||
|-2---------------||
|-----------------||





Comments


Popular L Arc En Ciel tabs & chords
Cureless Bass Tabs
Love Flies 1 Bass Tabs
Perfect Blue Bass Tabs
Hello Chords
Ready Steady Go Chords
4th Avenue Cafe Intro Tabs
Kasou Part Ii Tabs
Perfect Blue Ken Part Tabs
Ready Steady Go Tabs
Stay Away (Solo) Tabs


Song lyrics



↑ Back to top | Tablatures and chords are parodies/interpretations of the original songs. You may use it for private study, scholarship, research or language learning purposes only
© 2014 AZChords.com Contact us | Privacy policy | DMCA | Add/correct tabs | Request tabs | Top 50 tabs