>
 >
Daybreaks Bell

Daybreaks Bell Guitar Tabs

Larc En Ciel - Daybreaks Bell chords, tabs, tablatures, lyrics

Guitar lessons | Add/correct | Request | Top 50 tabs Artists:  A B C D E F G H I J K L M N O P Q R S T U V W X Y Z 0-9

Daybreaks Bell Guitar Tabs – Larc En Ciel

CD, Sheet music, Poster

Do you like Daybreaks Bell? Share with your friends now
ChordsTabsUkulele
-------------------------------------------------------------------------------
                             Daybreak's Bell - Larc En Ciel
-------------------------------------------------------------------------------

Tuning: standard tuning


intro/verse (keep playing until 00:37)
e|------------------------------------------------------------------3------|
B|------------------------------------------------3-3-3-3----0-0----0------|
G|----------------------------------------7-7-7---4-4-4-4---\2-2----0------|
D|---9-9-9-9-10-(let ring)---10-10-7-7-7--7-7-7---5-5-5-5---\3-3----0------|
A|---7-7-7-7--7---------------7--7-5-5-5--5-5-5---------------------2------|
E|------------------------------------------------------------------3------|

(no guitar from 00:37 until 00:48)

00:49
e|--0-(let ring)-----------------------------------------------------------|
B|--0----------------------------------------------------------------------|
G|--0----------------------------------------------------------------------|
D|-------------------------------------------------------------------------|
A|---------------------------3-------------------------5--5--5--/7--\5--2--|
E|---------------0--0--0-0-0---0--0--0-3-0---5-5-5-3-5---------------------|
                        * * *   *  *  * * *        *

e|--------------------------------------------0-(let ring)------------------|
B|--------------------------------------------0-----------------------------|
G|--------------------------------------------0-----------------------------|
D|--------------------------------------------------------------------------|
A|--------------------------------3--/5--\3---------------------------------|
E|---0-2-3---0-2-3--0-2-3--0--0---------------------------------------------|
     * *     * *    * *    *  *

pre chorus (01:01)
e|--------------------------------------------------------------------------|
B|----12---10-------\7-------5----5----4------------------------------------|
G|----11---11------9--------------5----4------------------------------------|
D|----10----9----9---------7------5----4----2-2---2-2--2--2-2---------------|
A|-------------7---------4--------3----2----2-2---2-2--2--2-2---------------|
E|------------------------------------------0-0---0-0--0--0-0---------------|


chorus (01:16)
e|---0----0----3---0--------------------------------------------------------|
B|---0----1----0---3--------------------------------------------------------|
G|---0----2----0---2---(just pick the strings one by one randomly)----------|
D|---2----0----0---0--------------------------------------------------------|
A|---2----3----2---0--------------------------------------------------------|
E|---0----0----3---0--------------------------------------------------------|

post chorus (01:39)
e|--------------------------------------------------------------------------|
B|----------4----5---(let ring)---------------------------------------------|
G|----------4----5----------------------------------------------------------|
D|----7-----4----5----------------------------------------------------------|
A|----7-----2----3----------------------------------------------------------|
E|----5---------------------------------------------------------------------|


(back to intro/verse until 02:05)

(at 02:06 play pre chorus until 02:18)

(at 02:19 back to chorus until 02:42)

(at 02:43 play post chorus twice)


solo (02:49)
e|--------------------------------------------------------------------------|
B|-----\20----15--13---12--10--8---/12---\7~~~------------------------------|
G|--------------------------------------------------------------------------|
D|--------------------------------------------------------------------------|
A|--------------------------------------------------------------------------|
E|--------------------------------------------------------------------------|

e|--------------------------------------------------------------------------|
B|----15--13---12--10--8---/12---\7~~~--------15--/17---\20-----------------|
G|--------------------------------------------------------------------------|
D|--------------------------------------------------------------------------|
A|--------------------------------------------------------------------------|
E|--------------------------------------------------------------------------|

e|--------------------------------------------------------------------------|
B|------15--13---12--10--8---/12---\7~~~--/10~~~/12~~~~~--------------------|
G|--------------------------------------------------------------------------|
D|--------------------------------------------------------------------------|
A|--------------------------------------------------------------------------|
E|--------------------------------------------------------------------------|

(at 03:17 play chorus)

backing lead (03:43)
e|--------------------------------------------------------------------------|
B|-13-12~~~~-----------------15-------13--12~~~~~---------------------------|
G|-----------14--/11~~~----------14-----------------------------------------|
D|--------------------------------------------------------------------------|
A|--------------------------------------------------------------------------|
E|--------------------------------------------------------------------------|

(at 03:54 play post chorus twice)


END





Comments


Popular Larc En Ciel tabs & chords
Heavens Drive Bass Tabs
Winterfall Chords
Blurry Eyes Tabs
Cest La Vie Tabs
Heavens Drive 2 Tabs
Kasou Part Ii Tabs
Daybreaks Bell Ukulele
Feeling Fine Ukulele
Shallow Sleep Hyde Ukulele
Stay Away Ukulele


Song lyrics



↑ Back to top | Tablatures and chords are parodies/interpretations of the original songs. You may use it for private study, scholarship, research or language learning purposes only
© 2014 AZChords.com Contact us | Privacy policy | DMCA | Add/correct tabs | Request tabs | Top 50 tabs