» » »

La Polla Records, Ya No Quiero Ser Yo Tabs (ver.1)

Artists:  A B C D E F G H I J K L M N O P Q R S T U V W X Y Z # 

Ya No Quiero Ser Yo Tabs (ver.1)

La Polla Records Tabs
 Rating:
4/5 (4 votes)
Ya No Quiero Ser Yo lessons Tabs too difficult? Try these video lessons and learn fast
                                       YA NO QUIERO SER YO
                         LA POLLA RECORDS
                      TODA LA PUTA VIDA IGUAL

UNA JOYA DE LA POLLA!!! LA PUTA HOZTIA
AGUANTE EL PUNK!!!!!!!


KOMENTARIOZ, ZALUDOZ, MENTADAZ O LO K ZEA:
HECHA X: VALKOV

INTRO:
e|----|----|----|----|----|----|----|----|
B|----|----|----|----|----|----|----|----|
G|----|--7-|----|----|----|--7-|----|----|
D|--4-|--7-|--4-|--2-|--4-|--7-|--7-|--2-|
A|--4-|--5-|--4-|--2-|--4-|--5-|--7-|--2-|
E|--2-|----|--2-|--0-|--2-|----|--5-|--0-|

VERSO:
e|----|----|----|----|----|----|----|----| x2
B|----|----|----|----|----|----|----|----|
G|----|--7-|----|----|----|--7-|----|--9-|
D|--4-|--7-|--4-|--2-|--4-|--7-|--7-|--9-|
A|--4-|--5-|--4-|--2-|--4-|--5-|--7-|--7-|
E|--2-|----|--2-|--0-|--2-|----|--5-|----|

e|--------|--------|------------|----|
B|--------|--------|------------|----|
G|------9-|--7-----|--7-------9-|--7-|
D|--7---9-|--7---7-|--7---7---9-|--7-|
A|--7---7-|--5---7-|--5---7---7-|--5-|
E|--5-----|------5-|------5-----|----|

…MI PACIENCIA…..(riff 1) 
e|--------|--------|--------|----|
B|------7-|--------|------7-|----|
G|--4---6-|--7-----|--4---6-|--9-|
D|--4---4-|--7---7-|--4---4-|--9-|
A|--2-----|--5---7-|--2-----|--7-|
E|--------|------5-|--------|----|

…LALALARALALALA… (riff 2)
e|----|----|----|----|----|----|----|----|x2
B|----|----|----|----|----|----|----|----|
G|----|--7-|----|----|----|--7-|----|--9-|
D|--4-|--7-|--4-|--2-|--4-|--7-|--7-|--9-|
A|--4-|--5-|--4-|--2-|--4-|--5-|--7-|--7-|
E|--2-|----|--2-|--0-|--2-|----|--5-|----|

SOLO: (SEGUNDA GUITARRA TOCA EL RIFF 2 -*solo una vez*-)
e|------------|--------------|------------|----------|
B|----14------|---10-10---10-|----14-10---|----------|
G|-14---14~~--|-9-------9----|-14--------9|-14-13--9-|
D|------------|--------------|------------|----------|
A|------------|--------------|------------|----------|
E|------------|--------------|------------|----------|

e|----------------------------|x3 e|------------------------|
B|----------------------------|   B!---17~~~----------------|
G|-14-9-13-9-14-9-13-9-14-13-9|   G|---------9-13-----------|
D|----------------------------|   D|------------------------|
A|----------------------------|   A|------------------------|
E|----------------------------|   E|------------------------|

….VOY A SER UN RICO TRISTE…:
e|----|----|----|----|
B!----|----|----|----|
G|----|--7-|----|--9-|
D|--4-|--7-|--7-|--9-|
A|--4-|--5-|--7-|--7-|
E|--2-|----|--5-|----|

RIFF 1: 
e|--------|--------|--------|----|x2
B|------7-|--------|------7-|----|
G|--4---6-|--7-----|--4---6-|--9-|
D|--4---4-|--7---7-|--4---4-|--9-|
A|--2-----|--5---7-|--2-----|--7-|
E|--------|------5-|--------|----|
OUTRO:
e|----|----|----|----|----|----|----|----|x3
B|----|----|----|----|----|----|----|----|
G|----|--7-|----|----|----|--7-|----|--9-|
D|--4-|--7-|--4-|--2-|--4-|--7-|--7-|--9-|
A|--4-|--5-|--4-|--2-|--4-|--5-|--7-|--7-|
E|--2-|----|--2-|--0-|--2-|----|--5-|----|

Letra:
Le vamos entrando!!! Entra!!! 1, 2, 3!!
LA LA LA RA LA LA LA....
Me he mirado en el espejo 
y no me he reconocido en el extraño 
que se ve tras el cristal 
si el pasado y el presente se reflejan y no mienten 
tengo que hacer algo por mi porvenir. 
Ya no quiero ser yo! 
Ya no quiero ser yo!
Ya no!!!

Mi paciencia tiene un limite y se acaba hoy 
hoy voy a matar esta vida gris, quiero enloquecer. 
LA LA LA RA LA LA LA....

Voy a ser el rey de roma o el alcalde de pamplona 
o el payaso que dispare sobre ti 
entrare en otra persona o en los huevos de mahoma 
da lo mismo, quiero estar fuera de mi. 

Voy a ser un rico triste, o el psiquiatra de la virgen 
cuando tuvo que contarle lo del niño a san jose. 
Hoy voy a matar esta vida gris, quiero enloquecer 
voy a mirar de lejos y nunca volvere 
que maÑana es tarde y todo sera igual. 
voy a mirar de lejos y nunca volvere
LA LA LA RA LA LA LA....
            
Submit corrections

comments powered by Disqus
↑ Back to top | La Polla Records Tabs for Ya No Quiero Ser Yo. Lyrics for acoustic guitar and electric guitar. Tablatures and chords are parodies/interpretations of the original songs. You may use it for private study, scholarship, research or language learning purposes only