» » »

La Oreja De Van Gogh, Palabras Para Paula Tabs (ver.1)

Artists:  A B C D E F G H I J K L M N O P Q R S T U V W X Y Z # 

Palabras Para Paula Tabs (ver.1)

La Oreja De Van Gogh Tabs
Rating:
0/5 (0 votes)
Palabras Para Paula lessons Tabs too difficult? Try these video lessons and learn fast
                     INTRO                                                               
     C                                             C                         
E||--0--------------------|--0-------------------|--0-------------------|
B||--------1---------1----|-------1---------1----|-------1---------1----|
G||-------------0---------|------------0---------|------------0---------|
D||-----------------------|--2-------------------|----------------------|
A||--3--------------------|----------------------|--3-------------------|
E||-----------------------|----------------------|----------------------|

                         C                                            
--0-------------------|--0-------------------|--0-------------------|
-------1---------1----|-------1---------1----|-------1---------1----|
------------0---------|------------0---------|------------0---------|
--2-------------------|----------------------|--2-------------------|
----------------------|--3-------------------|----------------------|
----------------------|----------------------|----------------------|

  G                                               C                     
----------------------|--0g1-------------------|--0-------------------|
------------3---------|---------3---------3----|-------1---------1----|
-------0---------0----|--------------0---------|------------0---------|
----------------------|------------------------|----------------------|
--2-------------------|------------------------|--3-------------------|
----------------------|------------------------|----------------------|

                         G   
--0-------------------|----------------------|--0g1-------------------|
-------1---------1----|------------3---------|---------3---------3----|
------------0---------|-------0---------0----|--------------0---------|
--2-------------------|----------------------|------------------------|
----------------------|--2-------------------|------------------------|
----------------------|----------------------|------------------------|

  C                                            G
--0-------------------|--0-------------------|----------------------|
-------1---------1----|-------1---------1----|------------3---------|
------------0---------|------------0---------|-------0---------0----|
----------------------|--2-------------------|----------------------|
--3-------------------|----------------------|--2-------------------|
----------------------|----------------------|----------------------|

                                                              ESTROFA: ES 
                           C                     E7
--0g1-------------------|--0------------------|-----------------------|
---------3---------3----|------------1--------|------------0----------|
--------------0---------|-------0-------------|-------1---------1-----|
------------------------|---------------------|-----------------------|
------------------------|--3------------------|--2--------------------|
------------------------|---------------------|-----------------------|

 PRONTO                   PARA                COMPRENDER        
  Am                         G                  C                            
--------------------------|-------------------|-------------------|
--1-----------------------|--3----------------|--1----------------|
--2-----------------------|--4----------------|--0----------------|
--------------------------|-------------------|-------------------|
--------------------------|-------------------|-------------------|
--------------------------|-------------------|-------------------|

                       QUE    PUEDA                 
  E7                           Am                                        
--------------0--------------|-----------------------|
---------0---------0---------|--1--------------------|
--0g1------------------------|--2--------------------|
-----------------------------|-----------------------|
-----------------------------|-----------------------|
-----------------------------|-----------------------|

 MIRARTE                 Y      VERME A LA                         
    G                             C
  -----------------------------|----------|
  --3--------------------------|--1-------|
  --4--------------------------|--0-------|
  -----------------------------|----------|
  -----------------------------|----------|
  -----------------------------|----------|


VEZ                  QUE       ESCUCHES       HOY   MI                       
                                  Dm                     
-------------------------------|-------------1--------|
--0----1--------0--------------|-----------------3----|
--0----2--------0--------------|--------2-------------|
-------------------------------|--0-------------------|
-------------------------------|----------------------|
-------------------------------|----------------------|


 VOZ           QUE      TANTO         TE                               
  G7                     C                       
----------------------|----------------------|
--3-------------------|------------1---------|
--0-------------------|-------0---------0----|
----------------------|----------------------|
----------------------|--3-------------------|
--3-------------------|----------------------|


 CANTO        LOS    MESES      QUE     TU                 
  Am                  Dm                               
-------------------|------------1---------|
--1----------------|-------3---------3----|
--2----------------|--2-------------------|
-------------------|----------------------|
--0----------------|----------------------|
-------------------|----------------------|


    FUISTE                                          
--/5-------------------|
-------------5---------|
--------7---------5----|
-----------------------|
-----------------------|
-----------------------|

    YO                                            ES        
  Am                     Am
----------------------|----------------------------------|
--1--------------1----|----------------------------------|
-------2--------------|--2-------------------------------|
----------------------|--2-------------------------------|
------------3---------|--0-------------------------------|
----------------------|----------------------------------|

 PRONTO          PARA               COMPRENDER             
  Am                     G                    C    
----------------------|---------------------|--------------------|
--1-------------------|--3------------------|--1-----------------|
-------2---------2----|-------0---------0---|-------0---------0--|
------------2---------|------------0--------|------------2-------|
--0-------------------|--2------------------|--3-----------------|
----------------------|---------------------|--------------------|

                             LA     VIDA                   ES    TAN   
    E7                                Am                                    
--------------0--------------------|----------------------------------|
---------0---------0---------------|--1-------------------------------|
-----------------------------------|-------2---------2----------------|
-----------------------------------|------------2---------------------|
--0g2------------------------------|--0-------------------------------|
-----------------------------------|----------------------------------|

 BELLA          COMO       TU     LA        QUIERAS                 
  G                         C                                                
-------------------------|----------------------|
--3----------------------|--1-------------------|
-------0------------0----|-------0---------0----|
------------0------------|------------2---------|
--2----------------------|--3-------------------|
-------------------------|----------------------|

 VER                SI    LLORAS               CANTARÉ                SI 
                         Dm                         G                  
----------------------|-------------1------------|----------------------|
--0----1----3----0----|------------------3-------|------------3---------|
--0----2----4----0----|--------2-----------------|-------0---------0----|
----------------------|--0-----------------------|----------------------|
----------------------|--------------------------|----------------------|
----------------------|--------------------------|--3-------------------|

 SUFRES           TE   HABLARE                   SI    
  C                       Am                         
-----------------------|---------------------------|
-------------1---------|-----------------1---------|
--------0---------0----|------------2---------2----|
-----------------------|---------------------------|
--3--------------------|--0------------------------|
-----------------------|---------------------------|

  MUERES                  MORIRÉ                         
  Dm                                                                     
----------------1-------------|--/5---------------------------|
-----------3---------3--------|-------------5-----------------|
--2---------------------------|--------7---------5------------|
------------------------------|-------------------------------|
------------------------------|-------------------------------|
------------------------------|-------------------------------|

TAMBIEN  
  Am                     G                        
----------------------|----------------------|
--1--------------1----|------------3---------|
-------2--------------|-------0---------0----|
----------------------|----------------------|
------------0---------|----------------------|
----------------------|--3-------------------|

CORO
C                 F      
Si te cuentan que lloré
G                      C     C/B
cuando te cogí en mis brazos
Am              F   
No me pude contener
G7                  C 
porque te quiero tanto
G C G C E7

ESTROFA
   Am       G         C      E7
Es pronto para comprender
  Am           G          C       G 
verás cómo el mundo es injusto y cruel
 Dm            G7      C          F
Porque un amanecer sin nada que perder 
   Dm          E7       Am     G
es muy difícil de entender

ESTROFA
C                 F      
Si te cuentan que lloré
G                      C     C/B
cuando te cogí en mis brazos
Am              F   
No me pude contener
G7                  C 
porque te quiero tanto
G                  C 
Porque te quiero tanto

PUENTE 
        G           Am
cómo el mar a su verano,
           F                  C
Cómo el dolor a su amigo el engaño
         G          F       Fm                      C*
Cómo el sol cuando vio que hoy nació una flor

CORO
                   F      
Si te cuentan que lloré
G                      C     C/B
cuando te cogí en mis brazos
Am              F   
No me pude contener
G7                  C 
porque te quiero tanto
G                   C
porque te quiero tanto
G                   C*
porque te quiero tanto
G C G C G Bb Am G# G C


     Am G  G7 G# C  C* C/B Bb E7 Dm F  Fm
E||--0--3--1--X--0--X--0---1--0--1--X--1--|
B||--1--3--0--3--1--5--1---3--0--3--1--1--|
G||--2--0--0--4--0--5--0---3--1--2--2--1--|
D||--2--0--0--X--2--5--X---3--0--0--3--3--|
A||--0--2--2--5--3--X--2---1--2--X--3--3--|
E||-----3--3--X--X--X------1--0--X--X--1--|
            

comments powered by Disqus
↑ Back to top | La Oreja De Van Gogh Tabs for Palabras Para Paula. Lyrics for acoustic guitar and electric guitar. Tablatures and chords are parodies/interpretations of the original songs. You may use it for private study, scholarship, research or language learning purposes only