» » »

La Oreja De Van Gogh, La Playa Bass tabs (ver.1)

Artists:  A B C D E F G H I J K L M N O P Q R S T U V W X Y Z # 

La Playa Bass tabs (ver.1)

La Oreja De Van Gogh Tabs
 Rating:
4/5 (4 votes)
La Playa lessons Tabs too difficult? Try these video lessons and learn fast
1
                Intro:
G ---------9-9-4---------------7-7--2--------------------|
D ---------------2-2-2----------------0-0------2---------|
A -0--0--0--------------------------------0--0---0--0--0-|
E ---------------------2--2--2---------------------------|

G -9-9--4------|
D --------2-2--|
A -------------|
E -------------|

Parte 02
G ---------------------------------------------------------|
D ---------------------2--2--2-3--3---4--4--4-4--4-4--4--0-|
A -0-0--0--0-0-0--0--0--------------4----------------------|
E ---------------------------------------------------------|

G -----------------------------------------------------|
D -4-0--0--0-0--0-0-0-------------2-4-2--2--2--2-2--2--|
A --------------------0--0--0-0--0---------2-----------|
E -----------------------------------------------------|

Parte 03
G --------------------------------------------------------|
D -2------------------2--2--2-3--3---4--4--4-4--4-4--4-0--|
A ---0--0--0-0-0--0--0-------------4----------------------|
E --------------------------------------------------------|

G ---------------------------------------------------|
D -0--0-0--0-0-0--------------2-4-2--2----2--2-2--2--|
A ---------------0--0--0-0--0-----------2------------|
E ---------------------------------------------------|

Parte 04
G -----------------------------------------------------|
D -2--0--0--0--0---------------------------------------|
A ---------------0------0------0--4--4--4-4------------|
E ------------------2-2----0-0--------------4--3-3--2--|

G ---------------------------------------------------------|
D -----------0-0-0-0---------------------------------------|
A -----2-4-4---------0--------------2-0-0-0--2-2--4-4-4-4--|
E -2-2-----------------2-2-0-0-0-0-4-----------------------|

G --------------------------------------------------------|
D ---------------2--2-2---2-0--0-0------------------------|
A -0-0-0--4--0-0--------2----------0--------------2-2-0-0-|
E -----------------------------------2-2-0--0-0-4---------|

Parte 05
G ------0--0-----------------------------------------------|
D -2--2-----4-2-2-0--0-0-0--0-0--2-2-----------------------|
A ----------------------0------------0-0--0-0-0-2-2-4-4-4--|
E ---------------------------------------0-----------------|

G ----------------------------------------------------------|
D -------------4--4-2--2---------0--0-0--0-----------2--2---|
A --4--4-4--4-4---------4--4-0--0---------0--0-0--0-0-------|
E -4--------------------------------------------------------|

G -----------------------------------------|
D -2-2--2-2-2-2-0--0--0----------2--2-2-2--|
A --2------2-----------4--4-4-4-4----------|
E -----------------------------------------|

Parte 06
Intro:
G --------------9-9-4-------------7-7--2------------|
D --2---2-2----------2-2--2--------------0-0--------|
A -2-2-2---0-0-0------------------------------0--0--|
E --------------------------2--2-2------------------|

G ----9-8-4-----------------------------------|
D ----------2--2--2---------------------------|
A -0----------------0--0----0-----------------|
E --------------------------------------------|

Parte 07
G ---------------------------------------------------------|
D --------------------2-2--2-3--3--4--4--4-4--4-4--4--4-0--|
A -0-0--0--0-0-0--0--0-----------4-------------------------|
E ---------------------------------------------------------|

G ------------------------------------------------|
D -0--0-0--0-0-0-------------2-4-2--2--2--2-2--2--|
A ---------------0--0--0-0--0---------2-----------|
E ------------------------------------------------|

Parte 08
G ---------------------------------------------------------|
D -2------------------2--2--2-3--3--4--4--4-4--4-4--4-4-0--|
A ---0--0--0-0-0--0--0------------4------------------------|
E ---------------------------------------------------------|

G ------------------------------------------------|
D -0--0-0--0-0-0------------2-4-2--2---2--2-2--2--|
A --------------0--0--0-0--0----------2-----------|
E ------------------------------------------------|

Parte 09
G -----------------------------------------------------|
D -2--0-0-0-0------------------------------------------|
A -----------0----0-----0--4-4--4-4-------------2--4---|
E -------------2-2---0-0-----------4--3-3-2--2-2----4--|

G ---------------------------------------------------------|
D -0-0-0-0------------------------------------------0--0-0-|
A --------0---------------2-0--0-0--2-2--4-4-4-4-4-4-------|
E ----------2-2-0-0-0-0-4----------------------------------|

G ----------------------------------------------------------|
D -------3--3-3--------------------2--2-2--2-0--0-0---------|
A -0------------3--0-0-0-0-0-4--0-0------2---------0--------|
E ---2-2--------------------------------------------2-2-0---|

G ---------------------0--0------------------------|
D ----------------2--2-----4-2---------------------|
A --------2-2-0--0---------------------------------|
E -0-0-4-------------------------------------------|

Parte 10
G ---------------------------------------------------------|
D -2--0--0-0--0--0-0--2-2----------------------------------|
A -----------0------------0-0---0--0-0--2-2-4--4-4--4--4-4-|
E ----------------------------0--------------------4-------|

G ---------------------------------------------------------|
D ----4--4-2--2---------0--0-0--0------------2--2-2---2--2-|
A -4-4---------4--4-0--0----------0--0-0--0-0-------2------|
E ---------------------------------------------------------|

G ---------------------------------------------------------|
D -2---2-2-0--0--0------------2--2-2--2-2---2-2-0--0-0--0--|
A ---2-------------4--4-4--4-4---------2-2-2----------0----|
E ---------------------------------------------------------|

G ---------------------------------------------------------|
D -0-0--2-2--------------------------------------4--4-2--2-|
A ----------0--0--0--0-0--2-2--4--4-4-4--4-4--4-4----------|
E ---------------0-------------------4---------------------|

G ---------------------------------------------------------|
D ----------0--0-0--0------------2--2-2---2--2-2---2-2-0-0-|
A -4--4-0--0----------0--0-0--0-0-------2--------2---------|
E ---------------------------------------------------------|

G ---------------------------------------------------------|
D --0-----------2--2-2--2-2----2--2-0--0-0--0-----------2--|
A ---4--4-4--4-4---------2-2-2---------------0--0-0--0-0---|
E ---------------------------------------------------------|

G --------------------------------------------|
D -2-2---2--2-2--2-2-0--0--0------------------|
A ------2-------2------------4--4-4--4--------|
E --------------------------------------------|

Final
G -----------------------------------------------------|
D ---2--2-2--2--2----2--2------------------------------|
A -4-----------2-2--2-----------2-2--2-2-2--2----------|
E ------------------------3--3-2---------------0-0-—0--|

Defino partes para los novatos

Intro: introducción

Parte 02
No sé si aún me recuerdas,
nos conocimos al tiempo
tú, el mar y el cielo y quién me trajo a ti.

Parte 03
Abrazaste mis abrazos vigilando aquel momento,
aunque fuera el primero, lo guardara para mí.

Parte 04
Si pudiera volver a nacer te vería cada día amanecer
sonriendo como cada vez, como aquella vez.

Parte 05
Te voy a escribir la canción más bonita del mundo,
voy a capturar nuestra historia en tan solo un segundo.
Y un día verás que este loco de poco se olvida,
por mucho que pasen los años de largo en su vida.

Parte 06: notas sin letra

Parte 07
El día de la despedida de esta playa de mi vida
te hice una promesa, volverte a ver así.

Parte 08
Más de cincuenta veranos hace hoy que no nos vemos
ni tú, ni el mar ni el cielo, ni quien me trajo a ti.

Parte 09
Si pudiera volver a nacer te vería cada día amanecer
sonriendo como cada vez, como aquella vez.

Parte 10
Te voy a escribir la canción más bonita del mundo,
voy a capturar nuestra historia en tan solo un segundo.
Y un día verás que este loco de poco se olvida,
por mucho que pasen los años de largo en su vida.
            
Submit corrections

comments powered by Disqus
↑ Back to top | La Oreja De Van Gogh Bass for La Playa. Lyrics for acoustic guitar and electric guitar. 1 Tablatures and chords are parodies/interpretations of the original songs. You may use it for private study, scholarship, research or language learning purposes only