>
 >
El Ultimo Vals

El Ultimo Vals Guitar Tabs

La Oreja De Van Gogh - El Ultimo Vals chords, tabs, tablatures, lyrics

Guitar lessons | Add/correct | Request | Top 50 tabs Artists:  A B C D E F G H I J K L M N O P Q R S T U V W X Y Z 0-9

El Ultimo Vals Guitar Tabs – La Oreja De Van Gogh

CD, Sheet music, Poster

Do you like El Ultimo Vals? Share with your friends now
ChordsTabsUkulele
intro:

  Bb                F                 Cm                Gm
e|--/6---6---6---6-|-5-----5---5---5-|-8-----8---8---8-|-6---5-----------|
B|-----8---8---8---|-----6---6---6---|-----8---8---8---|---------8-------|
G|-----------------|-----------------|-----------------|-----------------|
D|-----------------|-----------------|-----------------|-----------------|
A|-----------------|-----------------|-----------------|-----------------|
E|-----------------|-----------------|-----------------|-----------------|

  Bb                F                 Cm                Gm
e|--/6---6---6---6-|-5-----5---5---5-|-8---8---8-10-11-|-10--6-----------|
B|-----8---8---8---|-----6---6---6---|----8---8--------|---------8-------|
G|-----------------|-----------------|-----------------|-----------------|
D|-----------------|-----------------|-----------------|-----------------|
A|-----------------|-----------------|-----------------|-----------------|
E|-----------------|-----------------|-----------------|-----------------|

estrofa:

  Bb                 Eb                 F                  Gm       Bb
e|-----------------|-----------------|---------1-------|-------------1---|
B|---------3-------|---------4-------|-----1-----1-----|-----3-----3---3-|
G|-----3-----3-----|-----3-----3-----|-----------------|---3---3---------|
D|-----------------|-----------------|-----------------|-----------------|
A|-1---------------|-----------------|-----------------|-----------------|
E|-----------------|-3---------------|-1---------------|-3-------1-------|
  Como casi siempre cuando algo se muere
  Bb                F                 Eb                F
e|-----------------|---------1-------|-----------------|-----------------|
B|---------3-------|-----------------|---------4-------|-----------------|
G|-----3-----3-----|-----2-----2-----|-----3-----3-----|-----2---0-2-0---|
D|-----------------|-----------------|-----------------|---------------3-|
A|-1---------------|-----------------|-----------------|-----------------|
E|-----------------|-1---------------|-3---------------|-1---------------|
  nace la nostalgia buscando un corazón.
  Bb                Eb                F                 Gm       Bb
e|-----------------|-----------------|---------1-------|-------------1---|
B|---------3-------|---------4-------|-----1-----1-----|-----3-----3---3-|
G|-----3-----3-----|-----3-----3-----|-----------------|---3---3---------|
D|-----------------|-----------------|-----------------|-----------------|
A|-1---------------|-----------------|-----------------|-----------------|
E|-----------------|-3---------------|-1---------------|-3-------1-------|
  Pero el mio el raro y auque este desordenado
  Bb                F
e|-----------------|---------1-------|-----------------|-----------------|
B|---------3-------|-----------------|-----------------|-----------------|
G|-----3-----3-----|-----2-----2-----|-----2---0-2-----|-3---2---0---2---|
D|-----------------|-----------------|-----------------|-----------------|
A|-1---------------|-----------------|-----------------|-----------------|
E|-----------------|-1---------------|-1---------------|-----------------|
  es impermeable al dolor.

pre-estribillo:

  Eb                                  Bb
e|-6~~~~~~~~~~~~~~-|-----------------|-6~~~~~~~~~~~~~~-|-----------------|
B|-8~~~~~~~~~~~~~~-|-----------------|-6~~~~~~~~~~~~~~-|-----------------|
G|-8~~~~~~~~~~~~~~-|-----------------|-7~~~~~~~~~~~~~~-|-----------------|
D|-8~~~~~~~~~~~~~~-|-----------------|-8~~~~~~~~~~~~~~-|-----------------|
A|-6~~~~~~~~~~~~~~-|-----------------|-8~~~~~~~~~~~~~~-|-----------------|
E|-----------------|-----------------|-6~~~~~~~~~~~~~~-|-----------------|
  La felicidad es un maquillaje
  F                                   Gm
e|-8~~~~~~~~~~~~~~-|-----------------|-10~~~~~~~~~~~~~-|-----------------|
B|-10~~~~~~~~~~~~~-|-----------------|-11~~~~~~~~~~~~~-|-----------------|
G|-10~~~~~~~~~~~~~-|-----------------|-12~~~~~~~~~~~~~-|-----------------|
D|-10~~~~~~~~~~~~~-|-----------------|-12~~~~~~~~~~~~~-|-----------------|
A|-8~~~~~~~~~~~~~~-|-----------------|-10~~~~~~~~~~~~~-|-----------------|
E|-----------------|-----------------|-----------------|-----------------|
  de sonrisa amable desde que no estas…

estribillo:

  Bb                Dm                Gm                F
e|-------1---------|-------1---------|-------3---------|-------1---------|
B|---3---------3---|---3---------3---|---3---------3---|---1---------1---|
G|-3---3-----3-----|-2---2-----2-----|-3---3-----3-----|-2---2-----2-----|
D|-----------------|-----------------|-----------------|-----------------|
A|-----------------|-----------------|-----------------|-----------------|
E|-----------------|-----------------|-----------------|-----------------|
  Siempre seras bienvenido a este lugar.
  Bb                D                 Gm                Bb
e|-------1---------|-------2---------|-------3---------|-------5---------|
B|---3---------3---|---3---------3---|---3---------3---|---3---------3---|
G|-3---3-----3-----|-2---2-----2-----|-3---3-----3-----|-3---3-----3-----|
D|-----------------|-----------------|-----------------|-----------------|
A|-----------------|-----------------|-----------------|-----------------|
E|-----------------|-----------------|-----------------|-----------------|
  A mi lista de obsesiones, de nombres a olvidar
  Bb                F                 Gm                Dm
e|-------1---------|-------1---------|-------3---------|-------1---------|
B|---3---------3---|---1---------1---|---3---------3---|---3---------3---|
G|-3---3-----3-----|-2---2-----2-----|-3---3-----3-----|-2---2-----2-----|
D|-----------------|-----------------|-----------------|-----------------|
A|-----------------|-----------------|-----------------|-----------------|
E|-----------------|-----------------|-----------------|-----------------|
  ¿Cómo recordarte sin mirar atrás?
  Bb                F
e|-------1---------|-------1---------|
B|---3---------3---|---1---------1---|    desde  el
G|-3---3-----3-----|-2---2-----2-----|    principio
D|-----------------|-----------------|    dos veces
A|-----------------|-----------------|
E|-----------------|-----------------|
  Yo nunca olvidaré el último vals.
  Bb                Dm                Gm                F
e|-------1---------|-------1---------|-------3---------|-------1---------|
B|---3---------3---|---3---------3---|---3---------3---|---1---------1---|
G|-3---3-----3-----|-2---2-----2-----|-3---3-----3-----|-2---2-----2-----|
D|-----------------|-----------------|-----------------|-----------------|
A|-----------------|-----------------|-----------------|-----------------|
E|-----------------|-----------------|-----------------|-----------------|
  Siempre seras bienvenido a este lugar.
  Bb                D                 Gm                Bb
e|-------1---------|-------2---------|-------3---------|-------5---------|
B|---3---------3---|---3---------3---|---3---------3---|---3---------3---|
G|-3---3-----3-----|-2---2-----2-----|-3---3-----3-----|-3---3-----3-----|
D|-----------------|-----------------|-----------------|-----------------|
A|-----------------|-----------------|-----------------|-----------------|
E|-----------------|-----------------|-----------------|-----------------|
  A mi lista de obsesiones, de nombres a olvidar
  Bb                F                 D                 Gm
e|-----1-------1---|-----1-----------|---------2-------|-----------------|
B|---------3-------|---------1-------|-----3-------3---|-----------------|
G|-----------------|-------------2---|-----------------|-----------------|
D|-----------------|-----------------|-4---------------|-----5-------5---|
A|-1---------------|-----------------|-----------------|---------5-------|
E|-----------------|-1---------------|-----------------|-3---------------|
  ¿Cómo recordarte sin mirar atras?
  Bb                F                 Eb            F              Gm
e|-----------------|-------------1---|-------6-----|-------8------|-10~~-|
B|-------------3---|---------1-------|-----8---8---|-----10--10---|-11~~-|
G|---------3-------|-----2-----------|---8-------8-|---10------10-|-12~~-|
D|-----3-----------|-3---------------|-------------|--------------|-12~~-|
A|-1---------------|-----------------|-6-----------|-8------------|-10~~-|
E|-----------------|-----------------|-------------|--------------|------|
  Yo nunca olvidaré el último vals.





Comments


Popular La Oreja De Van Gogh tabs & chords
Dia Cero Chords
Dicen Que Dicen Chords
Jueves 1 Chords
Tic Tac Chords
Cumplir Un Ano Menos Ukulele
Jueves Ukulele
La Playa Ukulele
Mueca De Trapo Ukulele
Puedes Contar Conmigo Ukulele
Un Cuento Sobre El Agua Ukulele


Song lyrics



↑ Back to top | Tablatures and chords are parodies/interpretations of the original songs. You may use it for private study, scholarship, research or language learning purposes only
© 2014 AZChords.com Contact us | Privacy policy | DMCA | Add/correct tabs | Request tabs | Top 50 tabs