» » »

Deseos De Cosas Imposibles Bass tabs (ver.1)

Artists:  A B C D E F G H I J K L M N O P Q R S T U V W X Y Z # 

Deseos De Cosas Imposibles Bass tabs (ver.1)

La Oreja De Van Gogh
Rating:
0/5 (0 votes)

Tabs too difficult? Try these video lessons and learn fast.
                Igual que el poeta que decide…
G-----------------------------------------------------------------|
D-----------------------------------------------------------------|
A-2-2-2-2---------------------------------------------2-2-2-2-2---|
E---------2-2-2-2-4-4-4-4-4-4-4-4-----0-0-0-0--2-2-2-2------------|


G-----------------------------------------------------------------|
D-----------------------------------------------------------------|
A-2-2-26-6-6-6-6-6-6-64--------------------------2-2-2-2----------|
E--------------------------4-4-4-4-4-4-4-4-0-0-0-0---------2-2-2--|

G----------------------------------------------------------------|
D----------------------------------------------------------------|
A----------------------------------------------------------------|
E-2-2-2-2--------------------------------------------------------|

Coro


G----------------------------------------------------------------|
D----------------------------------------------------------------|
A-----------------2222222222222222-------------------------642---|
E-0000000022222222----------------------000000002222222222----24-|


G-----------------------------------------------------------------|
D-----------------------------------------------------------------|
A-4-4p0--------4-4p0--------------------------222222222222222214--|
E------2-2-4-2------2-2-4-2---0000000022222222--------------------|

Verso 2
 …escaparate
G-----------------------------------------------------------------|
D-----------------------------------------------------------------|
A--------------------------------------222222222222222266666666---|
E-----------4-4-4-4----0000000022222222---------------------------|


G----------------------------------------------------------------|
D----------------------------------------------------------------|
A-66666p4----------------------------------222222222-------------|
E--------44444444444444444-0000000022222222----------------------|


  Igual que se espera…
G----------------------------------------------------------------|
D----------------------------------------------------------------|
A-2-2-2-2---------------------------------------------2-2-2-2-2--|
E---------2-2-2-2-4-4-4-4-4-4-4-4-----0-0-0-0--2-2-2-2-----------|


G-----------------------------------------------------------------|
D-----------------------------------------------------------------|
A-2-2-26-6-6-6-6-6-6-64--------------------------2-2-2-2----------|
E--------------------------4-4-4-4-4-4-4-4-0-0-0-0---------2-2-2--|

G----------------------------------------------------------------|
D----------------------------------------------------------------|
A----------------------------------------------------------------|
E-2-2-2-2--------------------------------------------------------|

Coro

G----------------------------------------------------------------|
D----------------------------------------------------------------|
A-----------------2222222222222222-------------------------642---|
E-0000000022222222----------------------000000002222222222----24-|

                           Tan solo…
G----------------------------------------------------------------|
D----------------------------------------------------------------|
A-4-4p0--------4-4p0------------2---------------------2222222222-|
E------2-2-4-2------2-2-4-2-0-2------00000000022222222-----------|


G----------------------------------------------------------------|
D----------------------------------------------------------------|
A-222222222-----------------------642---4-4p0-------4-4p0--------|
E-------------0000000022222222222----24------2-2-4-2-----2-2-4-2-|


G----------------------------------------------------------------|
D----------------------------------------------------------------|
A-----------------------2----------------------------------------|
E-0-0-2-0-0-2-0-0-2-4-2------------------------------------------|
            
Tabs too difficult? Try these video lessons and learn fast.




comments powered by Disqus
↑ Back to top | Tablatures and chords are parodies/interpretations of the original songs. You may use it for private study, scholarship, research or language learning purposes only