» » »

Cuidate Tabs (ver.2)

Artists:  A B C D E F G H I J K L M N O P Q R S T U V W X Y Z # 

Cuidate Tabs (ver.2)

La Oreja De Van Gogh
Rating:
0/5 (0 votes)

Hard to play? Try these video lessons and learn fast.
                Intro: G#5
-----

Estrofa:
-------
                              Eb5
   Detrás del tiempo me instalé
                                  Bb5
   Ya ves ni me quejo ni me quejaré
                                       C#5
   Mi ser, mis recuerdos y alguna canción
                                 G#5
   Soy hoy mi premio de consolación.
                                 Eb5
   Y tu ¿qué has hecho para olvidar?
                                  Bb5
   ¿qué fué de aquella chica del bar?
                          C#5
   Lo sé prohibido preguntar muy bien seré sincera.


pre-coro:
--------

e|------------------3-3------------------4-4------------|
b|------------------5-5------------------6-6------------|
g|------------------5-5------------------6-6------------|
d|----3-------------5-5------------------6-6---1--------|
a|-------3----------3-3-------------3-4--4-4-----3------|
e|----------4---3-----------(1)-1-4----------------4----|

   Cubrí mis ojos con mis manos y luego imaginé

          Eb5        C#5        G#5        Eb5
   que estabas ahí de pie disimulando por mi.


Coro:
----

    G#5                    C#5
   Cierra la puerta ven y siéntate cerca
           F5                          Eb5
   que tus ojos me cuentan que te han visto llorar.
     G#5                 C#5
   Llena dos copas de recuerdos, de historias
            F5                         Eb5          G#5
   que tus manos aun tiemblan si me escuchan hablar.


Estrofa:
-------
                            Eb5
   Sin ti ya no podré escuchar
                    Bb5
   a la buena vida más
                               C#5
   volver a reírme de aquel final
                             G#5
   en el que el bueno acaba mal.
                        Eb5
   Sin ti ya no regresaré
                          Bb5
   al lugar donde te conocí
                         C#5
   lo sé prohibido recordar muy bien seré sincera.


Pre-coro: (bis x1)

coro: (bis x1)


        C#5         G#5         C5          F5
e|-----------------------------------------------------|
b|-----------------------------------------------------|
g|--------6---6-------5---5-------5---5-------5---5----|
d|----5/6---6-----5/6---6-----6`5---5-----5/6---6------|
a|-----------------------------------------------------|
e|-----------------------------------------------------|
          Tu cuídate         aquí yo estaré bien.


        C#5         G#5         D5
e|-----------------------------------------------------|
b|-----------------------------------------------------|
g|--------6---6-------5---5----------------------------|
d|----5/6---6-----5/6---6-----6`5---5-----6/5---5------|
a|--------------------------------6---6-------6---6----|
e|-----------------------------------------------------|
             Olvídame yo te  recordaré.

coro: (bis x1)

     G#5                    C#5
   Cierra la puerta ven y siéntate cerca
           F5                          Eb5
   que tus ojos me cuentan que te han visto llorar.
G#5           C#5   F5        C#5            G#5
   Y llena dos copas  y vamos a bailar tu y yo.
            
Hard to play? Try these video lessons and learn fast. | Correct




comments powered by Disqus
↑ Back to top | Tablatures and chords are parodies/interpretations of the original songs. You may use it for private study, scholarship, research or language learning purposes only