>
 >
Adios

Adios Guitar Tabs

La Oreja De Van Gogh - Adios chords, tabs, tablatures, lyrics

Guitar lessons | Add/correct | Request | Top 50 tabs Artists:  A B C D E F G H I J K L M N O P Q R S T U V W X Y Z 0-9

Adios Guitar Tabs – La Oreja De Van Gogh

CD, Sheet music, Poster

Do you like Adios? Share with your friends now
ChordsTabsUkulele
             FA             Lam      FA                 Lam
E------------1--------------0--------1------------------0--|
B------------1--------------1--------1------------------1--|
G------------2--------------2--------2------------------2--|
D------------3--------------2--------3------------------2--|
A—-----------3--------------0--------3------------------0--|
E----------------------------------------------------------|
   Tengo que irme ya, Abrázame, Nada más llegar te llamaré,

        Rem                  Lam       FA           SOL
E-------5--------------------0---------1------------3------|
B-------6--------------------1---------1------------3------|
G-------7--------------------2---------2------------4------|
D-------7--------------------2---------3------------5------|
A—------5--------------------0---------3------------5------|
E----------------------------------------------------------|
   Déjame marchar, no llores más, túmbate otra vez,

             Lam          FA                       Lam
E------------0---------------------------------------------|
B------------1------------------0-1-------------------0-1--|
G------------2----------------2----------------------2-----|
D------------2--------------3-----------------------2------|
A—-----------0------------3------------------------0-------|
E----------------------------------------------------------|
     Te dormirás. Te he dejado atrás y pienso en ti,

         FA                     Lam                Rem
E----------------------------------------------------------|
B--------------0-1-----------------0-1-------------5-6-----|
G------------2--------------------2---------------7--------|
D----------3---------------------2---------------7---------|
A—-------3----------------------0---------------5----------|
E----------------------------------------------------------|
  Oigo “adiós amor”, caer sobre mí. Yo quiero irme de allí,

                    Lam            LA#                 FA
E----------------------------------------------------------|
B------------------------0-1---------5-6-----------------1-|
G----------------------2-----------7--------------------2--|
D--------------------2-----------8---------------------3---|
A—-----------------0---------------------------------------|
E----------------------------------------------------------|
     no  puedo escapar,        Necesito volverte a abrazar,

              LA                     RE
E----------------------------------------------------------|
B--1--------------5----------------------------------------|
G----2----------6---6----------------------14-------12-----|
D------3------7---------------------M12-12----12-12--------|
A—---------------------------------------------------------|
E----------------------------------------------------------|
          abrazaaaaarr, (ESTRIBILLO) Veeeeeeeeeeeeeeennnnn,

                                   Sim
E----------------------------------------------------------|
B----------------------------------------------------------|
G-------11-------12-----11---------14-------12-------11----|
D-12-12----12-12---12-12--12-12-12----12-12----12-12-------|
A—---------------------------------------------------------|
E----------------------------------------------------------|
   cálmate              no         llores     más,
                    Fa#m
E----------------------------------------------------------|
B----------------------------------------------------------|
G------12-----11---------14-----12-----11-----12-----11-12-|
D-12-12--12-12—-12--11-11--11-11--11-11--11-11--11-11------|
A—---------------------------------------------------------|
E----------------------------------------------------------|
  si  cierras  los ojos verás,               que  sigo

  SOL                       LA#
E-----------------------------------------------------------|
B-----------------------------------------------------------|
G------16-----14-----12-----15-----14-----12------14-----12-|
D-12-12--12-12--12-12--12-12--12-12--12-12---12-12--12-12---|
A—----------------------------------------------------------|
E-----------------------------------------------------------|
  junto  a   ti   y   que   no      me      iré       sin

   RE                                    Sim
E----------------------------------------------------------|
B----------------------------------------------------------|
G-------14-----12-----11-----12-----11--------14-----12----|
D—-12-12--12-12--12-12--12-12—-12-12--12-12-12--12-12--12--|
A—---------------------------------------------------------|
E----------------------------------------------------------|
 Besar,                   una  de  esas  lágrimas,  que van

                          Fa#m
E----------------------------------------------------------|
B----------------------------------------------------------|
G---11-----12-----11-----------14-----12-----11-----12--12-|
D-12--12-12--12-12--12-12-11-11--11-11--11-11--11-11—-11---|
A—---------------------------------------------------------|
E----------------------------------------------------------|
  desde     tu            cara   al mar,          la   vida

     SOL                       LA#
E----------------------------------------------------------|
B----------------------------------------------------------|
G-11------16-----14-----12-----15-----14-----12------------|
D----12-12--12-12--12-12--12-12--12-12--12-12--------------|
A—---------------------------------------------------------|
E----------------------------------------------------------|
     Viene   y   va   y    se  vaaaaaaaaaaaaaaa.


  RE                Lam      SOL
E----------------------------------------------------------|
B----------------------------------------------------------|
G-11-11-11-11/12-12-9--------------------------------------|
D------------------------5-7-9/10/9/10/9/10/9/*------------|
A----------------------------------------------------------|
E----------------------------------------------------------|

         FA                   Lam             FA
2. Salgo del portal, quiero morir, tú en la habitación,
             Lam                 Rem
llorando por mí, tú me has hecho tan feliz, que siempre
    Lam     LA#               FA              LA
estaré a tu lado, cuidando de ti, cuidando de ti.

RE              Sim
VEN, CALMATE NO LLORES MÁS,
                Fa#m
SI CIERRAS LOS OJOS VERÁS,
         SOL              LA#
QUE SIGO JUNTO A TI Y QUE NO ME IRE SIN
  RE               Sim
BESAR, UNA DE ESAS LÁGRIMAS,
                 Fa#m
QUE VAN DESDE TU CARA AL MAR, LA VIDA

     SOL                     LA#
E----------------------------------------------------------|
B----------------------------------------------------------|
G-------16-----14-----12-----15-----14-----12--------------|
D--12-12--12-12--12-12--12-12--12-12--12-12----------------|
A----------------------------------------------------------|
E----------------------------------------------------------|
     Viene   y  va  y   se   vaaaaaaaaaaaaaaa.

                                     RE
E----------------------------------------------------------|
B----------------------------------------------------------|
G------------------------------------------14-------12-----|
D---------------------------------12-12-12----12-12--------|
A—---------------------------------------------------------|
E----------------------------------------------------------|
                                     Veeeeeeeeeeeeeeennnnn,

                               Lam
E----------------------------------------------------------|
B----------------------------------------------------------|
G--------11-------12------11--------12------11-----9-------|
D--12-12----12-12----12-12—-12-10-10---10-10--10-10--10-10-|
A—---------------------------------------------------------|
E----------------------------------------------------------|
   cálmate         no          llores     más,          si

                SOL
E----------------------------------------------------------|
B----------------------------------------------------------|
G-12------9----------16------14------12-------14-12--------|
D---10-10---10--12-12---12-12---12-12----12-12-------------|
A—---------------------------------------------------------|
E----------------------------------------------------------|
   cierras  los ojos verás,               que  sigo aquí

       LA#
E----------------------------------------------------------|
B----------------------------------------------------------|
G--------15------14-----12-----14-----12-------------------|
D-12-12-----12-12--12-12--12-12--12-12---------------------|
A—---------------------------------------------------------|
E----------------------------------------------------------|
 junto a tiiiiiii.

(Y ESTE ES EL SOLO FINAL)
    RE               Lam              SOL             LA#
E----------------------------------------------------------|
B-------------------------------------------8/12-10-8-7-6--|
G------14-12-11--12-11----12-11-9---------7----------------|
D-7/12-----------------10---------12-10-9------------------|
A--------------------------------------------------------—-|
E----------------------------------------------------------|

                    RE                 Lam              SOL
E----------------------------------------------------------|
B----------------------------------------------------------|
G--7-------------------14-12-11--12-11----12-11-9----------|
D----8-10-8-8/7---7/12-----------------10---------12-10-9--|
A--------------------------------------------------------—-|
E----------------------------------------------------------|

                 LA#             RE
E----------------------------------------------------------|
B----8/12-10-8-7-6-----------------------------------------|
G--7---------------7---------------------------------------|
D--------------------8-10-8-8/7--12------------------------|
A--------------------------------------------------------—-|
E----------------------------------------------------------|
                                  Na na na ra, na na nara
         Lam                            SOL
E----------------------------------------------------------|
B----------------------------------------------------------|
G----------------------------------------------------------|
D--------10-----------------------------9------------------|
A--------------------------------------------------------—-|
E----------------------------------------------------------|
  Na ra. Na na na ra, na na nara nara, Na na na ra, na na

                   LA#
E----------------------------------------------------------|
B----------------------------------------------------------|
G----------------------------------------------------------|
D------------------8----------------------------12a--------|
A--------------------------------------------------------—-|
E----------------------------------------------------------|
  na na nara nara, Na na na ra, na na nara nara, naaa.





Comments


Popular La Oreja De Van Gogh tabs & chords
Jueves 1 Chords
La Nia Que Llora En Tus Fiestas Chords
MuñEca De Trapo Tabs
MuñEca De Trapo 1 Tabs
Pop Tabs
11 De Marzo Ukulele
Adios Ukulele
Deseos De Cosas Imposibles Ukulele
La Playa Ukulele
Un Cuento Sobre El Agua Ukulele


Song lyrics



↑ Back to top | Tablatures and chords are parodies/interpretations of the original songs. You may use it for private study, scholarship, research or language learning purposes only
© 2014 AZChords.com Contact us | Privacy policy | DMCA | Add/correct tabs | Request tabs | Top 50 tabs