» » »

Landon Pigg, Sailed On Bass tabs (ver.1)

Artists:  A B C D E F G H I J K L M N O P Q R S T U V W X Y Z # 

Sailed On Bass tabs (ver.1)

Landon Pigg Tabs
 Rating:
4/5 (6 votes)
Sailed On lessons Tabs too difficult? Try these video lessons and learn fast
                -------------------------------------------------------------------------------
			    Landon Pigg - Sailed On
-------------------------------------------------------------------------------



Tuning: Standard

Start at :39
G|---------------------------------------------------------------------------|
D|-----3-----3--3--------3--3--3--3--3--3--3--3------------------------------|
A|-----------------------------------------------0--0--0--0--0--0--0--0------|
E|---------------------------------------------------------------------------|

G|---------------------------------------------------------------------------|
D|-----0--0--0--0--0--0--0---------------------------------------------------|
A|---------------------------------------------------------------------------|
E|---------------------------6--6--6--6--6--6--6--6\1--1--1--1--1--1--1--1---|

G|---------------------------------------------------------------------------|
D|--------------------------0--0--0--0--0--0--0--0---------------------------|
A|--0--0--0--0--0--0--0--0--------------------------1--1--1--1--1--1--1--1---|
E|---------------------------------------------------------------------------|

G|---------------------------------------------------------------------------|
D|---------------------------------------------------------------------------|
A|---------------------------------------------------------------------------|
E|--1--1--1--1--1--1--1--1---------------------------------------------------|

Chorus
G|---------------------------------------------------------------------------|
D|---------------------------------------------------------------------------|
A|--1--1----1--1--1----1--1--1----1--1--1------------------------------------|
E|-------------------------------------------1--1----1--1--1----1------------|

G|---------------------------------------------------------------------------|
D|-------------------------------------------3----5----7----5----------------|
A|--1--1----1--1--1----1--1--1----1--1--1------------------------------------|
E|---------------------------------------------------------------------------|

G|---------------------------------------------------------------------------|
D|---------------------------------------------------------------------------|
A|--3--3--------3--3--------1-----------1--1--------4--4---------------------|
E|--------------------------------------------------------------1--let-ring--|

1:57
G|--10-----------------------------------------------------------------------|
D|--------10\---------------3-----------3--3---------------------------------|
A|--------------3--3---------------------------------3------3--3-------------|
E|---------------------------------------------------------------------------|

G|---------------------------------------------------------------------------|
D|--------------------------0--0--0--0--0--0--0--0---------------------------|
A|--0--0--0--0--0--0--0--0----------------------------1---------1--1---------|
E|---------------------------------------------------------------------------|

G|---------------------------------------------------------------------------|
D|---------------------------------------------------------------------------|
A|---------------------------------------------------------------------------|
E|--1--1--1--1--1--1--1--1---------------------------------------------------|

Chorus
G|---------------------------------------------------------------------------|
D|-------------------------------------------3--3----3--3/5--7/8--7--5-------|
A|--1--1----1--1--1----1--1--1----1--1--1------------------------------------|
E|---------------------------------------------------------------------------|

G|---------------------------------------------------------------------------|
D|---------------------------------------------------------------------------|
A|--1--1----1--1--1----1--1--1----1--1--1----1-------------------------------|
E|----------------------------------------------1--1----1--1--1----1---------|

G|---------------------------------------------------------------------------|
D|------------------------------------------3---------1----3----6------------|
A|--3--3----3--3--3----3--1--1--1--1--1--1-------4---------------------------|
E|---------------------------------------------------------------------------|

G|---------------------------------------------------------------------------|
D|---------------------------------------------------------------------------|
A|--------------------------3--3--3--3--3--3--3--3---------------------------|
E|--1--1--1--1--1--1--1--1--------------------------4--4--4--4--4--4--4--4---|

G|---------------------------------------------------------------------------|
D|---------------------------------------------------------------------------|
A|--------------------------------------------------3--3--3--3--3--3--3--3/8-|
E|--4--4--4--4--4--4--4--4--1--1--1--1--1--1--1--1---------------------------|

G|---------------------------------------------------------------------------|
D|---------------------------------------------------------------------------|
A|--8--8--8--8--8--8--8--8--8--3--3--3--3--3--3--3--3------------------------|
E|---------------------------------------------------------------------------|

Chorus
G|---------------------------------------------------------------------------|
D|-------------------------------------------3--3----3--3/5-5--3--3----------|
A|--1--1----1--1--1----1--1--1----1--1--1------------------------------------|
E|---------------------------------------------------------------------------|

G|---------------------------------------------------------------------------|
D|---------------------------------------------------------------------------|
A|--1--1----1--1--1----1--1--1----1--1--1----1-------------------------------|
E|----------------------------------------------1--1----1--1--1----1---------|

G|---------------------------------------------------------------------------|
D|---------------------------------------------------------------------------|
A|--3--3----3--3--3----3--1--1--1--1--1--1--4-let-ring-----------------------|
E|---------------------------------------------------------------------------|

G|---------------------------------------------------------------------------|
D|---------------------------------------------------------------------------|
A|---------------------------------------------------------------------------|
E|--1-let-ring---------------------------------------------------------------|



/  slide up
\  slide down
===============================================================================
            
Submit corrections

comments powered by Disqus
↑ Back to top | Landon Pigg Bass for Sailed On. Lyrics for acoustic guitar and electric guitar. Tablatures and chords are parodies/interpretations of the original songs. You may use it for private study, scholarship, research or language learning purposes only