» » »

Speak To Me Bones Bass tabs (ver.1)

Artists:  A B C D E F G H I J K L M N O P Q R S T U V W X Y Z # 

Speak To Me Bones Bass tabs (ver.1)

Land Of Talk
Rating:
0/5 (0 votes)

Hard to play? Try these video lessons and learn fast.
                0:00
G----------------------------------------------------|
D----------------------------------------------------|
A-----------------------2-----------------------2----| x1
E--0-----0-----0-----3-----0-----3-----0-----3-------|

0:27
G----9--9-------9----9--9--9--9-----9---------|
D---------------------------------------------|
A--77-77-77h1010-1010-10-77-77-77h55-55445----| x4
E---------------------------------------------|
10 not 1 and 0

0:54
G--------------------------------------|
D--------------------------------------|
A---------9----679---------9-----------| x4
E--7--7--7-7910-----7--7--7-7910975----|
10 not 1 and 0

1:21
G----------------------------------------------------------------------|
D----------------------------------------------------------------------|
A--33--55--77--55--33--55--------------------------------77777777------| x1
E--------------------------00--33--55--77--00--33--55--77--------------|

1:35
G--------------------------------------|
D--------------------------------------|
A---------9----679---------9-----------| x6
E--7--7--7-7910-----7--7--7-7910975----|
10 not 1 and 0

2:15
G------------------------------------------------------------------|
D------------------------------------------------------------------|
A--33--55--77--55--33--55------------------------------------------| x1
E------------------------00--33--55--77--00--33--55--77--00--33----|

2:29
G----------------------------------------------------------------------|
D----------------------------------------------------------------------|
A--33--55--77--55--33--55--------------------------------77777777------| x1
E--------------------------00--33--55--77--00--33--55--77--------------|

2:43
G------------------------------------------------------------------------|
D------------------22--------------22--------------22--------------22----|
A-----------------2---------------2---------------2---------------2------| x1
E--000000033333333---0000033333333---0000033333333---0000033333333-------|

2:57
G------------------------------------------------------------------|
D--------------------------------222222255555555-------------------|
A-----------------222222255555555---------------222222255555555----| x2
E--000000033333333-------------------------------------------------|
            
Hard to play? Try these video lessons and learn fast. | Correct




comments powered by Disqus
↑ Back to top | Tablatures and chords are parodies/interpretations of the original songs. You may use it for private study, scholarship, research or language learning purposes only