» » »

Some Are Lakes Tabs (ver.1)

Artists:  A B C D E F G H I J K L M N O P Q R S T U V W X Y Z # 

Some Are Lakes Tabs (ver.1)

Land Of Talk
Rating:
4/5 (7 votes)

Hard to play? Try these video lessons and learn fast.
                -------------------------------------------------------------------------------
-------------------------------------------------------------------------------

Tuning: Standard

Here's a basic outline of the song. I'm too lazy to tab out every eighth note of a 
chord so listen to the song to figure out the timing.

e|------------|----------------------------------------------|  x 3
B|------------|-3-3----3--3-----0-------7-7--7--7------------|
G|------2-2-2-|-4-4----4--4-----12-12---7-7--7--7----2-2-2---|
D|------4-4-4-|-5-5----5--5-----14-14---9-9--11-11---4-4-4---|
A|------5-5-5-|-5-5----5--5-----14-14---9-9--9--9----5-5-5---|
E|------5-5-5-|-3-3----3--3-----12-12---7-7--7--7----5-5-5---|


e|------------------------------------------|
B|-3-3----3--3-----0--------2---14~-14~-14~-|
G|-4-4----4--4-----12-12----3---------------|
D|-5-5----5--5-----14-14----4---------------|
A|-5-5----5--5-----14-14----4---------------|
E|-3-3----3--3-----12-12----2~--------------|


e|-----------------------------------------------------------------|
B|----------------------------------------7-7-7-7--3-3-3-3-3-3-----|
G|--------------------12-12-12---2-2-2-2--7-7-7-7--4-4-4-4-4-4-----|
D|--17-17-17-17-------14-14-14---4-4-4-4--9-9-9-9--5-5-5-5-5-5-----|
A|--14-14-14-14-12-12-14-14-14---5-5-5-5--9-9-9-9--5-5-5-5-5-5-----|
E|--15-15-15-15-14-14-12-12-12---5-5-5-5--7-7-7-7--3-3-3-3-3-3-----|

e|---------------------------------------------------------------|
B|----------------------------------------7-7-7-7--2-------------|
G|--------------------12-12-12---2-2-2-2--7-7-7-7--3-------------|
D|--17-17-17-17-------14-14-14---4-4-4-4--9-9-9-9--4--2~-2~-2~---|
A|--14-14-14-14-12-12-14-14-14---5-5-5-5--9-9-9-9--4-------------|
E|--15-15-15-15-14-14-12-12-12---5-5-5-5--7-7-7-7--2-------------|

e|------------|----------------------------------------------|  x 5
B|------------|-3-3----3--3-----0-------7-7--7--7------------|
G|------2-2-2-|-4-4----4--4-----12-12---7-7--7--7----2-2-2---|
D|------4-4-4-|-5-5----5--5-----14-14---9-9--11-11---4-4-4---|
A|------5-5-5-|-5-5----5--5-----14-14---9-9--9--9----5-5-5---|
E|------5-5-5-|-3-3----3--3-----12-12---7-7--7--7----5-5-5---|

e|------------------------------------------|
B|-3-3----3--3-----0--------2---14~-14~-14~-|
G|-4-4----4--4-----12-12----3---------------|
D|-5-5----5--5-----14-14----4---------------|
A|-5-5----5--5-----14-14----4---------------|
E|-3-3----3--3-----12-12----2~--------------|

e|-----------------------------------------------------------------|
B|----------------------------------------7-7-7-7--3-3-3-3-3-3-----|
G|--------------------12-12-12---2-2-2-2--7-7-7-7--4-4-4-4-4-4-----|
D|--17-17-17-17-------14-14-14---4-4-4-4--9-9-9-9--5-5-5-5-5-5-----|
A|--14-14-14-14-12-12-14-14-14---5-5-5-5--9-9-9-9--5-5-5-5-5-5-----|
E|--15-15-15-15-14-14-12-12-12---5-5-5-5--7-7-7-7--3-3-3-3-3-3-----|

e|---------------------------------------------------------------|
B|----------------------------------------7-7-7-7--2-------------|
G|--------------------12-12-12---2-2-2-2--7-7-7-7--3-------------|
D|--17-17-17-17-------14-14-14---4-4-4-4--9-9-9-9--4-------------|
A|--14-14-14-14-12-12-14-14-14---5-5-5-5--9-9-9-9--4-------------|
E|--15-15-15-15-14-14-12-12-12---5-5-5-5--7-7-7-7--2-------------|


e|-------------------------------------------------| x 4
B|-------------------------------------------------|
G|-------------------------------------------------|
D|-------------------------------------------------|
A|-12-12--12-14-14-14---13-13--13-12-12-12-12------|
E|-15-15--15-15-15-15---8--8---8--8--8--8--8-------|

e|-------------------------------------------------|
B|---7-7-7-7--10-10-10-10--------------------------|
G|---7-7-7-7--11-11-11-11--------------------------|
D|---9-9-9-9--12-12-12-12--------------------------|
A|---9-9-9-9--12-12-12-12--------------------------|
E|---7-7-7-7--10-10-10-10--------------------------|

e|-------------------------------------------------| this and above x 3
B|-------------------------------------------------|
G|-------------------------------------------------|
D|-------------------------------------------------|
A|-12-12--12-14-14-14---13-13--13-12-12-12-12------|
E|-15-15--15-15-15-15---8--8---8--8--8--8--8-------|
                       [skip this third time around]

e|---|-----------------------------------------------------------------| x 2
B|-2-|------------------------------------------7-7-7-7--3-3-3-3-3-3-----|
G|-3-|----------------------12-12-12---2-2-2-2--7-7-7-7--4-4-4-4-4-4-----|
D|-4-|----17-17-17-17-------14-14-14---4-4-4-4--9-9-9-9--5-5-5-5-5-5-----|
A|-4-|----14-14-14-14-12-12-14-14-14---5-5-5-5--9-9-9-9--5-5-5-5-5-5-----|
E|-2-|----15-15-15-15-14-14-12-12-12---5-5-5-5--7-7-7-7--3-3-3-3-3-3-----|

e|------------------------------------| x 2
B|-----------7-7-7-7--3-3-3-3-3-3-----|
G|--2-2-2-2--7-7-7-7--4-4-4-4-4-4-----|
D|--4-4-4-4--9-9-9-9--5-5-5-5-5-5-----|
A|--5-5-5-5--9-9-9-9--5-5-5-5-5-5-----|
E|--5-5-5-5--7-7-7-7--3-3-3-3-3-3-----|

e|---------------------------| 
B|-----------7-7-7-7--2~-----|
G|--2-2-2-2--7-7-7-7--3~-----|
D|--4-4-4-4--9-9-9-9--4~-----|
A|--5-5-5-5--9-9-9-9--4~-----|
E|--5-5-5-5--7-7-7-7--2~-----|
            
Hard to play? Try these video lessons and learn fast. | Correct




comments powered by Disqus
↑ Back to top | Tablatures and chords are parodies/interpretations of the original songs. You may use it for private study, scholarship, research or language learning purposes only