» » »

Land Of Talk, Sea Foam Chords (ver.1)

Artists:  A B C D E F G H I J K L M N O P Q R S T U V W X Y Z # 

Sea Foam Chords (ver.1)

Land Of Talk Tabs
 Rating:
4.2/5 (5 votes)
Sea Foam lessons Tabs too difficult? Try these video lessons and learn fast
1
                Due to a ridiculous error, this bass tab is listed as being chords. Sorry.

0:12
G----------|
D----------|
A----------| x1
E--3--4----|

0:15
G----------------------------------------------|
D----------------------------------------------|
A----------------------------------------------| x7
E--3--3--4----3--3--4----3--3--4----3--3--4----|

0:38
G--8--7----|
D----------|
A----------| x1
E----------|

0:40
G----------------------------------------------------------------------------------|
D----------------------------------------------------------------------------------|
A--3-3-3333-33-3333----------------------------------------------------------------|
E-------------------1-1-1111-11-1111/11-11-11111111-1111-111111117777777773333333--|
       x2                   ONES           ELEVENS

1:06
G-------|
D-------|
A-------| x1
E--4----|

1:08
G----------------------------------------------|
D----------------------------------------------|
A----------------------------------------------| x11
E--3--3--4----3--3--4----3--3--4----3--3--4----|

1:45
G--8--7----|
D----------|
A----------| x1
E----------|

1:47
G----------------------------------------------------------------------------------|
D------------------3-3-3333-33-3333------------------------------------------------|
A--3-3-3333-33-3333----------------------------------------------------------------|
E----------------------------------11-11-11111111-1111-111111117777777777777333----|
     x2                                      ELEVENS

2:12
G----------------------------------------------------------------------|
D------------------------------1111------------------------------------|
A--------------------3-33333333--------------------3333333333333333----| x2
E--1111111111113333----------------4444444433333333--------------------|
      ONES

2:38
G-----------------------------------------------------------------------|
D------------------3-3-33-3-3-33113-5-5-55-5-5-5553---------------------|
A--3-3-33-3-3-33333---------------------------------222222222-----------| x1
E------------------------------------------------------------3333333----|

2:52
G------------------------------------------------------|
D------------------3-3-33-3-3-33113-5-5-55-5-5-5553----|
A--3-3-33-3-3-33333------------------------------------| x1
E------------------------------------------------------|

3:01
G--------------------------------------------------------|
D----------111100003333333311110000----------------------|
A--22222222------------------------22222222--------3~----| x1
E------------------------------------------33334444------|
            
Submit corrections

comments powered by Disqus
↑ Back to top | Land Of Talk Chords for Sea Foam. Lyrics for acoustic guitar and electric guitar. 1 Tablatures and chords are parodies/interpretations of the original songs. You may use it for private study, scholarship, research or language learning purposes only