>
 >
Magnetic Hill

Magnetic Hill Guitar Tabs

Land Of Talk - Magnetic Hill chords, tabs, tablatures, lyrics

Guitar lessons | Add/correct | Request | Top 50 tabs Artists:  A B C D E F G H I J K L M N O P Q R S T U V W X Y Z 0-9

Magnetic Hill Guitar Tabs – Land Of Talk

CD, Sheet music, Poster

Do you like Magnetic Hill? Share with your friends now
Tabs

Tuning: Standard

Key:

s = slide
/ = strum previous chord
^ = bend
x = mute string

Notes:

Looking at a few of their live videos, I found the first chord to be
(5354xx). You can play around with those notes to get the intro just
right. As for the ending I'm not so sure. I couldn't get a good view
of what she was playing, so I'm sure there are better sounding
chords to use. Leave a comment if you come up with anything better.


(INTRO)
e|--------------------------------------------------------------------|
B|--------------------------------------------------------------------|
G|-------------------4-----4----4---4^5-4------4-----4----------------|
D|-----5-------------5-----5----5---5----------5-----5------5---------|
A|-5s7---7-5-------3-3---3-3----3---3--------3-3---3-3--5s7---7-5-----|
E|-----------7---5------------5------------5----------------------7---|

e|--------------------------------------------------------------------|
B|--------------------------------------------------------------------|
G|------4-----4----4---4^5-4------4-----4-----------------------------|
D|------5-----5----5---5----------5-----5------5----------------------|
A|----3-3---3-3----3---3--------3-3---3-3--5s7---7-5------------------|
E|--5------------5------------5----------------------7----------------|

(VERSE)
e|--------------------------------------------------------------------|
B|--------------------------------------------------------------------|
G|-4---9----4---4-----------------------------------------------------|
D|-5---10---5---5------5----------------------------------------------|
A|-3---10---5---3--5s7---7-5------------------------------------------|
E|-5---8----3---5------------7----------------------------------------|

(BRIDGE)
e|-----5--5-----5--5-----5--5-----5--5----------------------------------|
B|-----5--5-----5--5-----5--5-----5--5----------------------------------|
G|-----5--5-----5--5-----5--5-----5--5---4-/-/---/-/---/-/-/---/-/------|
D|-----5--5-----5--5-----5--5-----5--5---5-/-/---/-/---/-/-/---/-/------|
A|-x-x-7--7-x-x-7--7-x-x-7--7-x-x-7--7---5-/-/---/-/---/-/-/---/-/------|
E|-x-x-5--5-x-x-5--5-x-x-5--5-x-x-5--5---3-/-/---/-/---/-/-/---/-/------|(x2)

(CHORUS)
e|-5-/--/-/-/-/---/-/-/---/-/------------------------------------------|
B|-5-/--/-/-/-/---/-/-/---/-/------------------------------------------|
G|-5-/--/-/-/-/---/-/-/---/-/--9--/---/-/-/-/---/-/-/---/-/------------|
D|-5-/--/-/-/-/---/-/-/---/-/--10-/---/-/-/-/---/-/-/---/-/------------|
A|-7-/--/-/-/-/---/-/-/---/-/--10-/---/-/-/-/---/-/-/---/-/------------|
E|-5-/--/-/-/-/---/-/-/---/-/--8--/---/-/-/-/---/-/-/---/-/------------|

e|-------------7--/-/-/---/--/-----------------------------------------|
B|-------------7--/-/-/---/--/-----------------------------------------|
G|-4-/---/-/---7--/-/-/---/--/-----------------------------------------|
D|-5-/---/-/---7--/-/-/---/--/-----------------------------------------|
A|-5-/---/-/---9--/-/-/---/--/-----------------------------------------|
E|-3-/---/-/---7--/-/-/---/--/--(x4)-----------------------------------|


(AFTER 2nd CHORUS)
e|---------------------------------------------------------------------|
B|---------------------------------------------------------------------|
G|---------------------------2-4-----------2-4-----------2-4-----------|
D|-------------------5---4h5-------5---4h5-------5---4h5---------------|
A|-----3-----5---------------------------------------------------------|
E|-3s5---5-4---5---5---5---------5---5---------5---5-------------------|

e|---------------------------------------------------------------------|
B|-----8-------7--7----------------------------------------------------|
G|-----7-------7--7----------------------------------------------------|
D|---5---------x--x----------------------------------------------------|
A|-7------5-5--5--5----------------------------------------------------|
E|---------------------------------------------------------------------|

e|---------------------------------------------------------------------|
B|--10-----------------10----------------------------------------------|
G|--11-----------------10------------13----------12--------------------|
D|--x------------------x-------------14----------13--------------------|
A|--9------------------8-------------14----------13--------------------|
E|-----------------------------------12----------11--------------------|





Comments


Popular Land Of Talk tabs & chords
Blangee Blee Bass Tabs
Quarry Hymns Chords
Troubled Chords
Breaxxbaxx Tabs
Sea Foam Intro Tabs
Some Are Lakes Tabs
Some Are Lakes 1 Tabs
Summer Special Intro Tabs
Quarry Hymns Ukulele
Troubled Ukulele


Song lyrics



↑ Back to top | Tablatures and chords are parodies/interpretations of the original songs. You may use it for private study, scholarship, research or language learning purposes only
© 2014 AZChords.com Contact us | Privacy policy | DMCA | Add/correct tabs | Request tabs | Top 50 tabs