» » »

Its Okay Tabs (ver.1)

Artists:  A B C D E F G H I J K L M N O P Q R S T U V W X Y Z # 

Its Okay Tabs (ver.1)

Land Of Talk
Rating:
0/5 (0 votes)

Hard to play? Try these video lessons and learn fast.
                (Live)

Awesome song from an awesome band from Montreal. The tab is correct for the most part. 
listen for the changes.

Tuning: E-b-d#-f#-b-d#

Verse:

D#||-----------------------------------------------------------------||
B ||-----------------------------------------------------------------||
F#||-----0-----0-----0-----1-1-1-0-------0-----0------0------0---0---||
D#||-----0-----0-----0-----0-0-0-0-------0-----0------0------0---0---||
B ||-----0-----0-----0-----0-0-0-0-------0-----0------0------0---0---||
E ||-0-0---0-0-0-0-2-2---2-2-2-2-2—--0-0---0-0-0--4-4-4--4-4-4-4-4---||


Chorus

D#||-------------0------------7-----------------------------------||
B ||-------------0------------7-----------------------------------||
F#||-------------4----(4)-----7-----------------------------------||
D#||--8p7--7-----7-or-(0)-----8-----------------------------------||
B ||--7----8p7---7----(0)-----7-----------------------------------||
E ||-(7)---7-----4----(4)--/s-7-----------------------------------||

Pre-Chorus: roughly the same as verse, rhythm is just a bit different

D#||------------------------------------|----||
B ||------------------------------------|----||
F#||-----0-----0-----1-1-1-0---0-----0--|----||
D#||-----0-----0-----0-0-0-0---0-----0--|----||
B ||-----0-----0-----0-0-0-0---0-----0--|----||
E ||-----0-----2---2-2-2-2-2—--0---0-4--|----||

Solo/Bridge

D#||-----------------------------------------------------------------||
B ||-----------------------------------------------------------------||
F#||-----------------------------------------4--------------0--------||
D#||---------------------------------------5----5---------5------1-0-||
B ||----0---0---2-4---0---0-02-4-2-----4s7--------7s4-4s7------2-2-0-||
E ||--4---4---4-----4---4-----------0------------------------------0-||

Lyrics:

It's Okay,
I don't even cry
all I think about is a memory
and the dream when you kissed my arm
as I look away, don't here what I say

That maybe when I die
I get to be a car
driving in the night
lighting up the dark.
something in your voice
sparks a little hope
I'll wait up for that noise
your voice become my home

One way road, don't care what I find
A little thunders good, I thought maybe you would
but it's okay, we all feel left out
sometimes growing up, it can get you down.

I give you some thing that no one's going to give you
my sleepin' skin and my heart deep down in you
I'll never tell you, but you're my little scar
Goodbyes are hard and there hard and there hard

Maybe when I die
I get to be a car
driving in the night
Lighting up the dark
Something in your voice,
sparks a little hope
Ill wait up for that noise
your voice become my home
            
Hard to play? Try these video lessons and learn fast. | Correct




comments powered by Disqus
↑ Back to top | Tablatures and chords are parodies/interpretations of the original songs. You may use it for private study, scholarship, research or language learning purposes only