» » »

Land Of Talk, Death By Fire Tabs (ver.1)

Artists:  A B C D E F G H I J K L M N O P Q R S T U V W X Y Z # 

Death By Fire Tabs (ver.1)

Land Of Talk Tabs
 Rating:
4/5 (4 votes)
Death By Fire lessons Tabs too difficult? Try these video lessons and learn fast
1
                -------------------------------------------------------------------------------
-------------------------------------------------------------------------------

Tuning: Standard (EADGBe)

Notes: The rhythm on this is just a very rough outline. Should be easy to piece
   together if you listen to the song, though.

Structure: I've tabbed out my best guess at the voicings of most of the chords
   in the sections below. I've also included a cheat sheet to the chords above
   the lyrics.


[Intro]
E        C#  C#add9
E        C#  D#
E        C#  Emaj7/C#  D#
E        C#  Emaj7/C#

[Section A]
Emaj7                          Emaj7/D#
Giving up a life worth leading kills us all
F#m                           A6
No surprise, the coldest eyes that took all
Emaj7                          Emaj7/D#
Giving up a life worth leading tears us down
F#m                                A6
The longest time, the longest line ever found

[Section B]
C#m/G#        B/Eb   A
C#m/G#        B/Eb   A
C#m/G#                       B/Eb        A
Lived your life in sacrifice is what you did
            C#m/G#                          B/Eb     A
And I don't think a rose or "raise a toast" seems to fit.
            C#m/G#                               B/Eb     A
I still get scared of fate, and interstates, and death by fire
              C#m/G#                            B/Eb     A
It's just the longest time, the longest line of heart's desire

[Section C]
A     G#m F#m                             A
Didn't I tell you there was no such thing as a bad bad day?
A   G#m F#m                          A          A6
Oh baby even if there was I wouldn't believe it anyway.

[Section B]
C#m/G#        B/Eb   A
C#m/G#        B/Eb   A
C#m/G#
One poison, two poison, three boys
             B/Eb      A
and it's not known for sure.
              C#m/G#
It's just the coldest eyes and no surprise
    B/Eb       A
and that's not pure.
            C#m/G#                               B/Eb    A
I still get scared of fate, and interstates, and death by fire
              C#m/G#                            B/Eb     A
It's just the longest time, the longest line of heart's desire

[Section C]
A      G#m F#m                            A
Didn't I tell you there was no such thing as a bad bad day?
A   G#m F#m                          A           A6
Oh baby even if there was I wouldn't believe it anyway.

[Intro]
E        C#  C#add9
E        C#  D#
E        C#  Emaj7/C#  D#
E        C#  Emaj7/C#

[Outro]
F#m   A6  Emaj7


Intro:

   E
e|---------------------------------------------------------------------------|
B|---------------------------------------------------------------------------|
G|---------------------------------------------------------------------------|
D|-9-----------9---9-----------9---9---11--11--13--13--11--11--9-------------|
A|-11----------11--11----------11--11--11--11--11--11--11--11--11------------|
E|-0-----------0---0-----------0---0---0---0---0---0---0---0---0-------------|

   C#                                          C#add9
e|---------------------------------------------------------------------------|
B|---------------------------------------------------------------------------|
G|---------------------------------------------------------------------------|
D|-11----------11--11----------11--11----------13--13--13--13--13------------|
A|-11----------11--11----------11--11----------11--11--11--11--11------------|
E|-9-----------9---9-----------9---9-----------9---9---9---9---9-------------|

   E
e|---------------------------------------------------------------------------|
B|---------------------------------------------------------------------------|
G|---------------------------------------------------------------------------|
D|-9-----------9---9-----------9---9---11--11--13--13--11--11--9-------------|
A|-11----------11--11----------11--11--11--11--11--11--11--11--11------------|
E|-0-----------0---0-----------0---0---0---0---0---0---0---0---0-------------|

   C#                                          D#
e|---------------------------------------------------------------------------|
B|---------------------------------------------------------------------------|
G|---------------------------------------------------------------------------|
D|-11----------11--11----------11--11----------13--13--13--13--13------------|
A|-11----------11--11----------11--11----------13--13--13--13--13------------|
E|-9-----------9---9-----------9---9-----------11--11--11--11--11------------|

   E
e|---------------------------------------------------------------------------|
B|---------------------------------------------------------------------------|
G|---------------------------------------------------------------------------|
D|-9-----------9---9-----------9---9---11--11--13--13--13--13--13------------|
A|-11----------11--11----------11--11--11--11--11--11--11--11--11------------|
E|-0-----------0---0-----------0---0---0---0---0---0---0---0---0-------------|

   Emaj7/C#                                    D#
e|---------------------------------------------------------------------------|
B|---------------------------------------------------------------------------|
G|---------8-------8---8-------8-------8-------------------------------------|
D|---------9-------9---9-------9-------9-------13--13--13--13--13------------|
A|---------x-------x---x-------x-------x-------13--13--13--13--13------------|
E|-9-------9-------9---9-------9-------9-------11--11--11--11--11------------|

   E
e|---------------------------------------------------------------------------|
B|---------------------------------------------------------------------------|
G|---------------------------------------------------------------------------|
D|-9-----------9---9-----------9---9---11--11--13--13--13--13--13------------|
A|-11----------11--11----------11--11--11--11--11--11--11--11--11------------|
E|-0-----------0---0-----------0---0---0---0---0---0---0---0---0-------------|

   Emaj7/C#
e|---------------------------------------------------------------------------|
B|---------------------------------------------------------------------------|
G|---------8-------8---8-----------8-------8-------8-------8-----------------|
D|---------9-------9---9-----------9-------9-------9-------9-----------------|
A|---------x-------x---x-----------x-------x-------x-------x-----------------|
E|-9-------9-------9---9-----------9-------9-------9-------9-----------------|


Section A:

   (adjust picking to flavor)

   Emaj7                           Emaj7/D#
e|---------------------------------------------------------------------------|
B|---------------------------------------------------------------------------|
G|-8-------------------------------8-----------------------------------------|
D|-9-------------------------------9-----------------------------------------|
A|-7-------------------------------6-----------------------------------------|
E|(0)------------------------------------------------------------------------|

   F#m                             Am
e|-2-------------------------------------------------------------------------|
B|-2-------------------------------1-----------------------------------------|
G|-2-------------------------------2-----------------------------------------|
D|-4-------------------------------2-----------------------------------------|
A|-4-------------------------------3-----------------------------------------|
E|---------------------------------------------------------------------------|


Section B:

   C#m/G#                                         B/Eb   A
e|-------------------------------------------------------5-------------------|
B|-4----------4---4-------4---4-------4---4-------4------5-------------------|
G|-6----------6---6-------6---6-------6---6-------4------6-------------------|
D|-6----------4---4-------6---6-------4---4-------4------7-------------------|
A|-4----------4---4-------4---4-------6---6h7p6--/6------7-------------------|
E|-4----------4---4-------4---4-------4---4--------------5-------------------|


Section C:

   A       G#m     F#m     A
e|-5-------4-------2-------0-------------------------------------------------|
B|-5-------4-------2-------2-------------------------------------------------|
G|-6-------4-------2-------2-------------------------------------------------|
D|-7-------6-------4-------2-------------------------------------------------|
A|-7-------6-------4-------0-------------------------------------------------|
E|-5-------4-------2---------------------------------------------------------|

   A       G#m     F#m     A                      A6
e|-5-------4-------2-------0----------------------0--------------------------|
B|-5-------4-------2-------2----------------------1--------------------------|
G|-6-------4-------2-------2----------------------2--------------------------|
D|-7-------6-------4-------2----------------------2--------------------------|
A|-7-------6-------4-------0----------------------3--------------------------|
E|-5-------4-------2---------------------------------------------------------|


Outro:

   F#m             A6              Emaj7
e|---------------------------------4-----------------------------------------|
B|---------2---------------1-------4-----------------------------------------|
G|-------------2---------------2---4-----------------------------------------|
D|-----4---------------2-----------2-----------------------------------------|
A|-4---------------3---------------2-----------------------------------------|
E|---------------------------------0-----------------------------------------|


************************************

| /   slide up
| \   slide down
| h   hammer-on
| p   pull-off
| ~   vibrato
| +   harmonic
| x   Mute note
| b   Bend
| pb  Pre-bend
| br  Bend release
| pbr Pre-bend release
| brb Bend release bend

************************************
            
Submit corrections

comments powered by Disqus
↑ Back to top | Land Of Talk Tabs for Death By Fire. Lyrics for acoustic guitar and electric guitar. 1 Tablatures and chords are parodies/interpretations of the original songs. You may use it for private study, scholarship, research or language learning purposes only