» » »

Land Of Talk, Breaxxbaxx Tabs (ver.1)

Artists:  A B C D E F G H I J K L M N O P Q R S T U V W X Y Z # 

Breaxxbaxx Tabs (ver.1)

Land Of Talk Tabs
 Rating:
4/5 (4 votes)
Breaxxbaxx lessons Tabs too difficult? Try these video lessons and learn fast
                ------------------------------------------------------------------------------
-------------------------------------------------------------------------------

Tuning:half step dwn

intro riff: x4

e|---------------------------------------------------------------------------|
B|-5------5------5------5------5------5-------5-------5----------------------|
G|-4------4------4------4------4------4-------4-------4----------------------|
D|-5------5------5------5------5------5-------5-------5----------------------|
A|-3------3------3------3------3------3-------3-------3----------------------|
E|---------------------------------------------------------------------------|
         intro riff 2: fast

         x8       x8       x8       x8
e|------------------------------------------------------------------------------|
B|--0---/---0---/---0---/----0--------------------------------------------------|
G|--0---/---0---/---0---/----0--------------------------------------------------|
D|--5---/---7---/---9---/---11--------------------------------------------------|
A|--3---/---5---/---7---/---9---------------------------------------------------|
E|------------------------------------------------------------------------------|

main riff/verse: x2
e|-------0---7--7-------------------------------------0---7--7---------------|
B|-------0---7--7--------7--------8--8-----------0----0---7--7---------------|
G|-------9---9--9--------5--------5--5-----------9----9---9--9---------------|
D|-10---10--10-10--------5--5--5--5--5----10-10-10---10--10-10---------------|
A|-10----------------5---5--5--5--5--5----10-10-10---------------------------|
E|--8--------------------------------------8--8--8---------------------------|

e|---------------------------------------------------------------------------|
B|--0---------0-----0---0-/--0-----0-----------------------------------------|
G|--0---------0-----0---0-/--0-----0-----------------------------------------|
D|--7---------7-----7---7-/--9-----9-----------------------------------------|
A|--5---------5-----5---5-/--7-----7-----------------------------------------|
E|---------------------------------------------------------------------------|

chorus x4

e|---------------------------------------------------------------------------|
B|---------------------------------------------------------------------------|
G|----0----0----0---0---0---/--0-----0----0---0---0---0----------------------|
D|----5----5----5---5---5---/--4-----4----4---4---4---4----------------------|
A|----3----3----3---3---3---/--2-----2----2---2---2---2----------------------|
E|---------------------------------------------------------------------------|
it's not hard


bridge x6

e|---------------------------------------------------------------------------|
B|---------------0----------5------5------------------0------7--7--7---------|
G|----4---------0-0---------4-------4-----------------9------9--9--9---------|
D|---5--5------5---5--------5--------5------10---10--10-10--10-10-10---------|
A|-2----------------5-------3---------------10-------------------------------|
E|-----------3-------3-----------------------8-------------------------------|


outro  repeat x2

       |x7|
e|----|-------------------------------------------------------------------------|
B|----|-----------x--5--x--5----------------------------------------------------|
G|--0-|---0-------x--4--x--4----------------------------------------------------|
D|--5-|---2-------x--5--x--5----------------------------------------------------|
A|--5-|---2-------x--3--x--3----------------------------------------------------|
E|--3-|---0---------------------------------------------------------------------|

playing order:

intro:x4
intro2:x1
main riff/verse: x2
main riff/verse: x2
chorus x4
main riff/verse: x2
main riff/verse: x2
chorus x4
bridge x6
chorus x4
chorus x4
outro  repeat x2


************************************

| /   slide up
| \   slide down
| h   hammer-on
| p   pull-off
| ~   vibrato
| +   harmonic
| x   Mute note
| b   Bend
| pb  Pre-bend
| br  Bend release
| pbr Pre-bend release
| brb Bend release bend

************************************
            
Submit corrections

comments powered by Disqus
↑ Back to top | Land Of Talk Tabs for Breaxxbaxx. Lyrics for acoustic guitar and electric guitar. Tablatures and chords are parodies/interpretations of the original songs. You may use it for private study, scholarship, research or language learning purposes only