» » »

Yayo Tabs (ver.2)

Artists:  A B C D E F G H I J K L M N O P Q R S T U V W X Y Z # 

Yayo Tabs (ver.2)

Lana Del Rey
Rating:
0/5 (0 votes)

Hard to play? Try these video lessons and learn fast.
                Band: Lana Del Rey
Tuning: Standard


verse:
e|------9----------9----------9-----------9----------------------------|
B|---------------------------------------------------------------------|
G|---------------------------------------------------------------------|
D|---------------------------------------------------------------------|
A|--9-------9----------8-----------8-----------------------------------|
E|---------------------------------------------------------------------|

e|-------6-------6----------4-----------4------------------------------|
B|---------------------------------------------------------------------|
G|---------------------------------------------------------------------|
D|---------------------------------------------------------------------|
A|--6-------6--------4----------4--------------------------------------|
E|---------------------------------------------------------------------|

e|--------2--------2----------6---------6--------6-------6---------------|
B|-----------------------------------------------------------------------|
G|-----------------------------------------------------------------------|
D|-----------------------------------------------------------------------|
A|---2-------2---------6----------6---------8--------8-------------------|
E|-----------------------------------------------------------------------|


Yayo..

e|--------6-------6---------6-------6----------------------------------|
B|---------------------------------------------------------------------|
G|---------------------------------------------------------------------|
D|---------------------------------------------------------------------|
A|---9------9--------8--------8----------------------------------------|
E|---------------------------------------------------------------------|

x2


Put me on to your..

e|---------6--------6----------6---------6-----------------------------|
B|---------------------------------------------------------------------|
G|---------------------------------------------------------------------|
D|---------------------------------------------------------------------|
A|---6--------5---------4---------3------------------------------------|
E|---------------------------------------------------------------------|

x3


I wear your sparkle..

e|-------6-------6---------6----------6--------------------------------|
B|---------------------------------------------------------------------|
G|---------------------------------------------------------------------|
D|--------------------8---------8--------------------------------------|
A|--6------6-----------------------------------------------------------|
E|---------------------------------------------------------------------|


Let me put on...

e|--------6---------8----------6----------6----------------------------|
B|---------------------------------------------------------------------|
G|---------------------------------------------------------------------|
D|--6--------8---------------------------------------------------------|
A|------------------------6----------6---------------------------------|
E|---------------------------------------------------------------------|

x4
            
Hard to play? Try these video lessons and learn fast. | Correct




comments powered by Disqus
↑ Back to top | Tablatures and chords are parodies/interpretations of the original songs. You may use it for private study, scholarship, research or language learning purposes only