» » »

Lana Del Rey, Yayo Tabs (ver.1)

Artists:  A B C D E F G H I J K L M N O P Q R S T U V W X Y Z # 

Yayo Tabs (ver.1)

Lana Del Rey Tabs
 Rating:
4.2/5 (5 votes)
Yayo lessons Tabs too difficult? Try these video lessons and learn fast
                
e|--7-----7-----7-----7---/--10-----10-----10-----10---\--7-----7-----|
B|---0-----0-----0-----0-------0------0------0------0------0-----0----|
G|----0-----0-----0-----0-------0------0------0------0------0-----0---|
D|--------------------------------------------------------------------|
A|-7-----7-----6-----6----/-10-----10-----9------9-----\-7-----7------|
E|--------------------------------------------------------------------|

e|-5----5-----3----3-----7----7----7----7----|--7----7-----5-----3----|
B|--0----0-----0----0-----0----0----0----0---|---0----0-----0-----0---|
G|---0----0-----0----0-----0----0----0----0--|----0----0-----0-----0--|
D|-------------------------------------------|------------------------|
A|5----5-----3----3-----7----7----6----6-----|-7----6-----5-----4-----|
E|-------------------------------------------|-----------------rpt-x4-|

e|---0-----2------7-----7-----------|  pure class! =)
B|----0-----0------0-----0---rpt-x4-|
G|-----0-----0------0-----0---then--|
D|----------------------------start-|
A|--0-----2------7-----7-------over-|
E|------------------------------>>>-|
            
Submit corrections

comments powered by Disqus
↑ Back to top | Lana Del Rey Tabs for Yayo. Lyrics for acoustic guitar and electric guitar. Tablatures and chords are parodies/interpretations of the original songs. You may use it for private study, scholarship, research or language learning purposes only