>
 >
Kinda Outta Luck

Kinda Outta Luck Guitar Tabs

Lana Del Rey - Kinda Outta Luck chords, tabs, tablatures, lyrics

Guitar lessons | Add/correct | Request | Top 50 tabs Artists:  A B C D E F G H I J K L M N O P Q R S T U V W X Y Z 0-9

Kinda Outta Luck Guitar Tabs – Lana Del Rey

CD, Sheet music, Poster

Do you like Kinda Outta Luck? Share with your friends now
ChordsTabsUkulele
Lana Del Rey - Kinda Outta Luck

Alot of the guitar is in this song is quite quiet so its hard to tell
exactly whats being played. This is about as close as I can get with
it making a difference, and it certainly wont sound wrong. You may
notice the two pre-chorus' are slightly different, again ive gone for
the closest approximation but you could quite easily play either or
even a combination of the two for either one. It'll still sound great.
Anyway, cool song, enjoy!


Intro (with tremolo)

E------------------------------------------------------|
B----------0---------------------------1---------------|
G------0---------------------------0-------------------|
D--2---------------------------2-----------------------|
A--------------------------3---------------------------|
E------------------------------------------------------|

E---------------------------------------------0--------|
B--------------0-----------------------------0---------|
G----------0--------------------------------0----------|
D------0---------------------4-------------2-----------|
A--2---------------------------------------------------|
E------------------------------------------------------|

E--------------0---------------------------------------|
B----------0---------------------------1---------------|
G------0---------------------------0-------------------|
D--2---------------------------2-----------------------|
A--------------------------3---------------------------|
E------------------------------------------------------|

E------------------------------------------------0-----|
B--------------0--------------------------------0------|
G----------0-----------------------------------0-------|
D------0--------------------------------------2--------|
A--2-----------------------------------------2---------|
E------------------------3---------2--------0----------|


Drum Crescendo


Verse

E-------------------------------------------------|
B-------------------------------------------------|
G--------9---9--------9----------9---9--------9---|
D--------9---9--------9----------9---9--------9---|
A--------7---7--------7----------7---7--------7---|
E-------------------------------------------------|

E-------------------------------------------------|
B-------------------------------------------------|
G--------9---9--------9---------------------------|
D--------9---9--------9----------9---9--------9---|
A--------7---7--------7----------9---9--------9---|
E--------------------------------7---7--------7---|

E-------------------------------------------------|
B-------------------------------------------------|
G--------9---9--------9----------9---9--------9---|
D--------9---9--------9----------9---9--------9---|
A--------7---7--------7----------7---7--------7---|
E-------------------------------------------------|

E-------------------------------------------------|
B-------------------------------------------------|
G--------9---9--------9---------------------------|
D--------9---9--------9----------9---9--------9---|
A--------7---7--------7----------9---9--------9---|
E--------------------------------7---7--------7---|


Pre-chorus 1
_________
|
|E--------------------------------------------------|
|B--------------------------------------------------|
|G---------9---9--------9----------9---9--------9---|
|D---------9---9--------9----------9---9--------9---|
|A---------7---7--------7----------7---7--------7---|
|E--------------------------------------------------|
|
|E--------------------------------------------------|
|B--------------------------------------------------|
|G--12-12-12-12-11-11-11-11-9--9--9--9--8--8--8--8--|
|D--x--x--x--x--x--x--x--x--x--x--x--x--x--x--x--x--|
|A--10-10-10-10-9--9--9--9--7--7--7--7--6--6--6--6--|
|E--------------------------------------------------|
|________

_________
|
|E--------------------------------------------------|
|B--------------------------------------------------|
|G---------9---9--------9----------9---9--------9---|
|D---------9---9--------9----------9---9--------9---|
|A---------7---7--------7----------7---7--------7---|
|E--------------------------------------------------|
|
|E--------------------------------------------------|
|B--------------------------------------------------|
|G--12-12-12-12-11-11-11-11-9--9--9--9--8--8--8--8--|
|D--x--x--x--x--x--x--x--x--x--x--x--x--x--x--x--x--|
|A--10-10-10-10-9--9--9--9--7--7--7--7--6--6--6--6--|
|E--------------------------------------------------|
|________

_________
|
|E--------------------------------------------------|
|B--------------------------------------------------|
|G---------9---9--------9----------9---9--------9---|
|D---------9---9--------9----------9---9--------9---|
|A---------7---7--------7----------7---7--------7---|
|E--------------------------------------------------|
|
|E--------------------------------------------------|
|B--------------------------------------------------|
|G--12-12-12-12-11-11-11-11-9--9--9--9--8--8--8--8--|
|D--x--x--x--x--x--x--x--x--x--x--x--x--x--x--x--x--|
|A--10-10-10-10-9--9--9--9--7--7--7--7--6--6--6--6--|
|E--------------------------------------------------|
|________

_________
|
|E--------------------------------------------------|
|B--------------------------------------------------|
|G--------------------------------------------------|
|D--------------------------------------------------|
|A--------------------------------------------------|
|E--------------------------------------------------|
|
|E--------------------------------------------------|
|B--------------------------------------------------|
|G--12\---------------------------------------------|
|D--x-----------------------------------------------|
|A--10\---------------------------------------------|
|E--------------------------------------------------|
|________


Chorus

E--------------------------------------------------|
B--------------------------------------------------|
G--------------------------------------------------|
D--------------------------------------------------|
A--------------2--2--0-----------------2--2--0-----|
E--0--0--3--3-----------3--0--0--3--3-----------3--|

E--------------------------------------------------|
B--------------------------------------------------|
G--------------------------------------------------|
D--------------------------------------------------|
A--------3--3--7--7--5--3--------3--3--6-h7--6-h7--|
E--5--5--------------------5--5--------------------|

E--------------------------------------------------|
B--------------------------------------------------|
G--------------------------------------------------|
D--------------------------------------------------|
A--------------2--2--0-----------------2--2--0-----|
E--0--0--3--3-----------3--0--0--3--3-----------3--|

E--------------------------------------------------|
B--------------------------------------------------|
G--------------------------------------------------|
D--------------------------------------------------|
A--------5--5--9--9--7--5--------3--3--6-h7--6-h7--|
E--7--7--------------------5--5--------------------|

E--------------------------------------------------|
B--------------------------------------------------|
G--------------------------------------------------|
D--------------------------------------------------|
A--------------2--2--0-----------------2--2--0-----|
E--0--0--3--3-----------3--0--0--3--3-----------3--|

E--------------------------------------------------|
B--------------------------------------------------|
G--------------------------------------------------|
D--------------------------------------------------|
A--------3--3--7--7--5--3--------3--3--6-h7--6-h7--|
E--5--5--------------------5--5--------------------|

E--------------------------------------------------|
B--------------------------------------------------|
G--------------------------------------------------|
D--------------------------------------------------|
A--------------2--2--0-----------------2--2--0-----|
E--0--0--3--3-----------3--0--0--3--3-----------3--|

E--------------------------------------------------|
B--------------------------------------------------|
G--------------------------------------------------|
D--------------------------------------------------|
A--------------------------------------------------|
E--------------------------------------------------|


(Post-chorus)

E--------------------------------------------------|
B--------------------------------------------------|
G--------9---9--------9----------9---9--------9----|
D--------9---9--------9----------9---9--------9----|
A--------7---7--------7----------7---7--------7----|
E--------------------------------------------------|


Verse


Pre-chorus 2

_________
|
|E--------------------------------------------------|
|B--------------------------------------------------|
|G---------9---9--------9----------9---9--------9---|
|D---------9---9--------9----------9---9--------9---|
|A---------7---7--------7----------7---7--------7---|
|E--------------------------------------------------|
|
|E--------------------------------------------------|
|B--------------------------------------------------|
|G--------------------------------------------------|
|D--------------------------------------------------|
|A--10-10-10-10-9--9--9--9--7--7--7--7--6--6--6--6--|
|E--12-12-12-12-10-10-10-10-8--8--8--8--7--7--7--7--|
|________

_________
|
|E--------------------------------------------------|
|B--------------------------------------------------|
|G---------9---9--------9----------9---9--------9---|
|D---------9---9--------9----------9---9--------9---|
|A---------7---7--------7----------7---7--------7---|
|E--------------------------------------------------|
|
|E--------------------------------------------------|
|B--------------------------------------------------|
|G--------------------------------------------------|
|D--------------------------------------------------|
|A--10-10-10-10-9--9--9--9--7--7--7--7--6--6--6--6--|
|E--12-12-12-12-10-10-10-10-8--8--8--8--7--7--7--7--|
|________

_________
|
|E--------------------------------------------------|
|B--------------------------------------------------|
|G---------9---9--------9----------9---9--------9---|
|D---------9---9--------9----------9---9--------9---|
|A---------7---7--------7----------7---7--------7---|
|E--------------------------------------------------|
|
|E--------------------------------------------------|
|B--------------------------------------------------|
|G--------------------------------------------------|
|D--------------------------------------------------|
|A--10-10-10-10-9--9--9--9--7--7--7--7--6--6--6--6--|
|E--12-12-12-12-10-10-10-10-8--8--8--8--7--7--7--7--|
|________

_________
|
|E--------------------------------------------------|
|B--------------------------------------------------|
|G--------------------------------------------------|
|D--------------------------------------------------|
|A--------------------------------------------------|
|E--------------------------------------------------|
|
|E--------------------------------------------------|
|B--------------------------------------------------|
|G--------------------------------------------------|
|D--------------------------------------------------|
|A--10\---------------------------------------------|
|E--12\---------------------------------------------|
|________



Chorus


Drum break/Middle 8


Chorus


The End


P.S. If you find the reaches in the chorus a little too much,
here is an alternate way you can play it.

E--------------------------------------------------|
B--------------------------------------------------|
G--------------------------------------------------|
D--------------------------------------------------|
A--------------2--2--0-----------------2--2--0-----|
E--0--0--3--3-----------3--0--0--3--3-----------3--|

E--------------------------------------------------|
B--------------------------------------------------|
G--------------------------------------------------|
D--------------2--2--0-----------------1-h2--1-h2--|
A--0--0--3--3-----------3--0--0--3--3--------------|
E--------------------------------------------------|

E--------------------------------------------------|
B--------------------------------------------------|
G--------------------------------------------------|
D--------------------------------------------------|
A--------------2--2--0-----------------2--2--0-----|
E--0--0--3--3-----------3--0--0--3--3-----------3--|

E--------------------------------------------------|
B--------------------------------------------------|
G--------------------------------------------------|
D--------0--0--4--4--2--0--------------1-h2--1-h2--|
A--2--2--------------------0--0--3--3--------------|
E--------------------------------------------------|

E--------------------------------------------------|
B--------------------------------------------------|
G--------------------------------------------------|
D--------------------------------------------------|
A--------------2--2--0-----------------2--2--0-----|
E--0--0--3--3-----------3--0--0--3--3-----------3--|

E--------------------------------------------------|
B--------------------------------------------------|
G--------------------------------------------------|
D--------------2--2--0-----------------1-h2--1-h2--|
A--0--0--3--3-----------3--0--0--3--3--------------|
E--------------------------------------------------|

E--------------------------------------------------|
B--------------------------------------------------|
G--------------------------------------------------|
D--------------------------------------------------|
A--------------2--2--0-----------------2--2--0-----|
E--0--0--3--3-----------3--0--0--3--3-----------3--|


Thanks, all the best,

Dave


Guitar Tablature Legend:

h = hammer on
p = pull off
/ = slide up
\ = slide down
x = mute (with your fret hand)





Comments


Popular Lana Del Rey tabs & chords
Break My Fall Chords
Chelsea Hotel No 2 Chords
Elvis Demo Chords
End Of The World Chords
Lucky Ones Chords
Million Dollar Man 1 Chords
Summer Wine Chords
Video Games 9 Chords
Blue Jeans Ukulele
Children Of The Bad Revolution Ukulele


Song lyrics



↑ Back to top | Tablatures and chords are parodies/interpretations of the original songs. You may use it for private study, scholarship, research or language learning purposes only
© 2014 AZChords.com Contact us | Privacy policy | DMCA | Add/correct tabs | Request tabs | Top 50 tabs