» » »

Lamb Of God, Terror And Hubris In The House Of Frank Pollard Bass tabs (ver.1)

Artists:  A B C D E F G H I J K L M N O P Q R S T U V W X Y Z # 

Terror And Hubris In The House Of Frank Pollard Bass tabs (ver.1)

Lamb Of God Tabs
Rating:
0/5 (0 votes)
Terror And Hubris In The House Of Frank Pollard lessons Tabs too difficult? Try these video lessons and learn fast
                Riff 1:
G|------------------------------------------|
D|------------4-3---0-1-0-------------------|
A|-------6-5--------------------------------|
D| -0-0-------------------------------------|

Riff 2: on last time hold on the 1(x2)
G|----------------------------------|
D|--6-5-----------------------1-0---|
A|----------------------------------|
D|----------------------------------|

Riff 3:				(x4)
G|--------------------------------|
D|-0-0-0------0-0-----------------|
A|--------------------------------|
D|--------------------------------|

Riff 4: Verse 1 & 2 (x3)
G|-----------------------------------------|
D|-0-0-0-0-0-0-0-0-0-0-0-0-3-0-0-5---------|
A|-----------------------------------------|
D|-----------------------------------------|

Riff 5: Last part of Verse
G|-------------------------------|
D|-3-0-0-0-5------3-0-0-0-5------|
A|-------------------------------|
D|-------------------------------|

Riff 6:                    (x3)
G|------------------------|
D|-0-0-0-6-0-0-1-0-0------|
A|------------------------|
D|------------------------|

Riff 7:
G|------------6-5---------|
D|-0-0-0-0----------------|
A|------------------------|
D|------------------------|

Riff 8:
G|-----------------------|
D|0--0-3--0--6-5-6-5-6-5-|
A|-----------------------|
D|-----------------------|

Riff 9:
G|-------------------------------------------------------------|
D|-0-0-0-0-0-0-0-0-3-3-3-3-3-3-3-3-0-0-0-0-0-0-0-0-6-5-6-5-6-5-|
A|-------------------------------------------------------------|
D|-------------------------------------------------------------|

Riff 10: Ring the last note
G|-------------------|
D|---------1---------|
A|-------------------|
D|-0-0-0-------------|

Riff 11:
G|----------------------------------|
D|--------------------------------1-|
A|----------------------------------|
D|-0-0---0-0---0-0---0-0---0--------|

Riff 12:
G|------------------|
D|---------1--------|
A|------------------|
D|-0-0-0------------|

Ending:
G|------------------|
D|------------------|
A|------------------|
D|---0-0-0----------|

Do timing and repetitions on your own   Please Rate it.
            
Submit corrections

comments powered by Disqus
↑ Back to top | Lamb Of God Bass for Terror And Hubris In The House Of Frank Pollard. Lyrics for acoustic guitar and electric guitar. Tablatures and chords are parodies/interpretations of the original songs. You may use it for private study, scholarship, research or language learning purposes only