>
 >
Remorse Is For The Dead

Remorse Is For The Dead Guitar Tabs

Lamb Of God - Remorse Is For The Dead chords, tabs, tablatures, lyrics

Guitar lessons | Add/correct | Request | Top 50 tabs Artists:  A B C D E F G H I J K L M N O P Q R S T U V W X Y Z 0-9

Remorse Is For The Dead Guitar Tabs – Lamb Of God

CD, Sheet music, Poster

Do you like Remorse Is For The Dead? Share with your friends now
Bass TabsTabsTabs v2Tabs v3
* Pinch Harmonic
	~ Vibrato
	h Hammer On
	p Pull Off
	. Palm Mute
	/ Slide Up
	\ Slide Down
	b Bend
	r Release

	Guitar 1 (0:00-1:08)
e|-------------------------------------------------|
B|-------------------------------------------------|
G|-----2---2-------2---2-------3---3-------2---0---|
D|---0---0---0---0---0---0---0---0---0---0---0---0-|
A|-------------0-----------1-----------------------|
D|-0-----------------------------------5-----------|
						     x6
e|-------------------------------------------------|
B|-------------------------------------------------|
G|-----2---2-------0---0-------2---2-3-----2---0---|
D|---0---0---0-------0---0---0---0-------0---0---0-|
A|-0-------------0---------------------------------|
D|-------------3-----------5-----------1-----------|


	Guitar 2 (0:22-1:08)
e|-------------------------------------------------|
B|-------------------------------------------------|
G|---------2~----------2~----------3~----------0~--|
D|-------------------------------------------------|
A|-------------------------------------------------|
D|-------------------------------------------------|
						     x4
e|-------------------------------------------------|
B|---------2~----------------------0~--------------|
G|---------------------3~------------------2---0---|
D|---------------------------------------0---0---0-|
A|-------------------------------------------------|
D|-------------------------------------1-----------|


	Guitar 1 (1:08-1:16)
e|-------------------------------------------------|
B|-------------------------------------------------|
G|-----2---0-------2---0-------2---0-------2---0---|
D|---0---0---0---0---0---0---0---0---0---0---0---0-|
A|-------------------------------------------------|
D|-1-----------1-----------1-----------1-----------|


	Guitar 1 & 2 (1:17-1:42)
e|------------------------------------------------------------------|
B|------------------------------------------------------------------|
G|------------------------------------------------------------------|
D|------------------------------------------------------------------|
A|-0-0-0-0-3-0-3-6-00000-00-00-000000000000-3-0-3-6-0-3-2-0-2-1-0-1-|
D|-0-0-0-0-3-0-3-6-00000-00-00-000000000000-3-0-3-6-0-3-2-0-2-1-0-1-|
   . . . .   .     ..... .. .. ............   .     .     .     .
e|------------------------------------------------------------------|
B|------------------------------------------------------------------|
G|------------------------------------------------------------------|
D|------------------------------------------------------------------|
A|-0-0-0-0-3-0-3-6-00000-00-00-000000000000-3-0-3-6-0-3-2-0-2-1-0-1-|
D|-0-0-0-0-3-0-3-6-00000-00-00-000000000000-3-0-3-6-0-3-2-0-2-1-0-1-|
   . . . .   .     ..... .. .. ............   .     .     .     .

e|------------------------------------------------------------------|
B|------------------------------------------------------------------|
G|------------------------------------------------------------------|
D|------------------------------------------------------------------|
A|-0-0-0-0-3-0-3-6-00000-00000-000000000000-3-0-3-6-0-3-2-0-2-1-0-1-|
D|-0-0-0-0-3-0-3-6-00000-00000-000000000000-3-0-3-6-0-3-2-0-2-1-0-1-|
   . . . .   .     ..... ..... ............   .     .     .     .

e|------------------------------------------------------------------|
B|------------------------------------------------------------------|
G|------------------------------------------------------------------|
D|------------------------------------------------------------------|
A|-0-0-0-0-3-0-3-6-00000-00000-000000000000-3-0-3-6-0-3-2-0-2-1-0-1-|
D|-0-0-0-0-3-0-3-6-00000-00000-000000000000-3-0-3-6-0-3-2-0-2-1-0-1-|
   . . . .   .     ..... ..... ............   .     .     .     .


	Guitar 1 (1:42-1:43)
e|-----------------|---|
B|-----------------|---|
G|-----------------|---|
D|-3-------5-------|---|
A|-1-2-1-2-3-4-3-1-|-0-|
D|---2-1-2---4-3-1-|-0-|
     . . .   . . .   ^this is played at the same time as the first 6
                      in the bar below

	Guitar 1 & 2 (1:43-2:14)
					Guitar 1 comes back in.
e|----------------------------|-------------------------------------|
B|----------------------------|-------------------------------------|
G|----------------------------|-------------------------------------|
D|----------------------------|-------------------------------------|
A|----------------------------|-------------------------------------|
D|-6-0-0-6-0-0-6-0-7-0-0-7-0-0|-3-6-7-6-0-0-000-0-000-0-000-0-000-0-|
     . .   . .   .   . .   . .          . . ... . ... . ... . ... .

e|------------------------------------------------------------------|
B|------------------------------------------------------------------|
G|------------------------------------------------------------------|
D|------------------------------------------------------------------|
A|-----------------------------0-3-2-----2-----2---1----------------|
D|-6-0-0-6-0-0-6-0-7-0-0-7-0-0-------3-3---3-3---3---3-2-1-0-1-2-3--|
     . .   . .   .   . .   . .       . .   . .   .   . . . . . . .

e|------------------------------------------------------------------|
B|------------------------------------------------------------------|
G|------------------------------------------------------------------|
D|------------------------------------------------------------------|
A|------------------------------------------------------------------|
D|-6-0-0-6-0-0-6-0-7-0-0-7-0-0-3-6-7-6-0-0-000-0-000-0-000-0-000-0--|
     . .   . .   .   . .   . .         . . ... . ... . ... . ... .

e|------------------------------------------------------------------|
B|------------------------------------------------------------------|
G|------------------------------------------------------------------|
D|------------------------------------------------------------------|
A|-----------------------------0-3-2-----2-----2---1----------------|
D|-6-0-0-6-0-0-6-0-7-0-0-7-0-0-------3-3---3-3---3---3-2-1-0-1-2-3--|
     . .   . .   .   . .   . .       . .   . .   .   . . . . . . .

e|------------------------------------------------------------------|
B|------------------------------------------------------------------|
G|------------------------------------------------------------------|
D|------------------------------------------------------------------|
A|-6-0-0-6-0-0-6-0-7-0-0-7-0-0-3-6-7-6-0-0-000-0-000-0-000-0-000-0--|
D|-6-0-0-6-0-0-6-0-7-0-0-7-0-0-3-6-7-6-0-0-000-0-000-0-000-0-000-0--|
     . .   . .   .   . .   . .         . . ... . ... . ... . ... .

e|------------------------------------------------------------------|
B|------------------------------------------------------------------|
G|------------------------------------------------------------------|
D|-------------------------------5-4-----4-----4---3----------------|
A|-6-0-0-6-0-0-6-0-7-0-0-7-0-0-0-3-2-3-3-2-3-3-2-3-1----------------|
D|-6-0-0-6-0-0-6-0-7-0-0-7-0-0-------3-3---3-3---3---3-2-1-0-1-2-3--|
     . .   . .   .   . .   . .       . .   . .   .   . . . . . . .


	Guitar 1 & 2 (2:14-2:25)
  Listen to song for timing this part, much easier!
e|----------------------------------|
B|----------------------------------|
G|----------------------------------| x3
D|----------------------------------|
A|-22222-2-2-2-22222-2-2-2-22222222-|
D|-22222-2-2-2-22222-2-2-2-22222222-|
   ..... . . . ..... . . . ........

  Last Time
e|----------------------------------|
B|----------------------------------|
G|----------------------------------|
D|----------------------------------|
A|-22222-2-2-2-22222-2-2-2-2-3------|
D|-22222-2-2-2-22222-2-2-2-2-3------|
   ..... . . . ..... . . . .


	Guitar 1 & 2 (2:25-2:36)
e|----------------------------------------------------------------------|
B|----------------------------------------------------------------------|
G|----------------------------------------------------------------------|
D|----------------------------------------------------------------------|
A|-------------------------------------------------------------------2-3|
D|-3h6p3-2-2h3p2-3h6p3-2-2-2-2-3h6p3-2-1-3h6p3-2-2-2-2-3h6p3-2-2-2-2-2-3|
                                                                     .

e|----------------------------------------------------------------------|
B|----------------------------------------------------------------------|
G|----------------------------------------------------------------------|
D|----------------------------------------------------------------------|
A|-------------------------------------------------------------------2-3|
D|-3h6p3-2-2-2-2-3h6p3-2-2-2-2-3h6p3-2-1-3h6p3-2-2-2-2-3h6p3-2-2-2-2-2-3|
                                                                     .


	Guitar 1 & 2 (2:36-2:57)
e|------------------------------------------------------------------|
B|------------------------------------------------------------------|
G|------------------------------------------------------------------|
D|------------------------------------------------------------------|
A|------------------------------------------------------------------|
D|-6-0-0-6-0-0-6-0-7-0-0-7-0-0-3-6-7-6-0-0-000-0-000-0-000-0-000-0--|
     . .   . .   .   . .   . .         . . ... . ... . ... . ... .

e|------------------------------------------------------------------|
B|------------------------------------------------------------------|
G|------------------------------------------------------------------|
D|------------------------------------------------------------------|
A|-----------------------------0-3-2-----2-----2---1----------------|
D|-6-0-0-6-0-0-6-0-7-0-0-7-0-0-------3-3---3-3---3---3-2-1-0-1-2-3--|
     . .   . .   .   . .   . .       . .   . .   .   . . . . . . .

e|------------------------------------------------------------------|
B|------------------------------------------------------------------|
G|------------------------------------------------------------------|
D|------------------------------------------------------------------|
A|------------------------------------------------------------------|
D|-6-0-0-6-0-0-6-0-7-0-0-7-0-0-3-6-7-6-0-0-000-0-000-0-000-0-000-0--|
     . .   . .   .   . .   . .         . . ... . ... . ... . ... .

e|------------------------------------------------------------------|
B|------------------------------------------------------------------|
G|------------------------------------------------------------------|
D|------------------------------------------------------------------|
A|-----------------------------0-3-2-----2-----2---1----------------|
D|-6-0-0-6-0-0-6-0-7-0-0-7-0-0-------3-3---3-3---3---3-2-1-0-1-2-3--|
     . .   . .   .   . .   . .       . .   . .   .   . . . . . . .


	Guitar 1 & 2 (2:58-3:09)
  Listen to song for timing this part, much easier!
e|----------------------------------|
B|----------------------------------|
G|----------------------------------| x3
D|----------------------------------|
A|-22222-2-2-2-22222-2-2-2-22222222-|
D|-22222-2-2-2-22222-2-2-2-22222222-|
   ..... . . . ..... . . . ........

  Last Time
e|----------------------------------|
B|----------------------------------|
G|----------------------------------|
D|----------------------------------|
A|-22222-2-2-2-22222-2-2-2-2-3------|
D|-22222-2-2-2-22222-2-2-2-2-3------|
   ..... . . . ..... . . . .


	Guitar 1 & 2 (3:09-3:23)
e|----------------------------------------------------------------------|
B|----------------------------------------------------------------------|
G|----------------------------------------------------------------------|
D|----------------------------------------------------------------------|
A|-------------------------------------------------------------------2-3|
D|-3h6p3-2-2h3p2-3h6p3-2-2-2-2-3h6p3-2-1-3h6p3-2-2-2-2-3h6p3-2-2-2-2-2-3|
                                                                     .

e|----------------------------------------------------------------------|
B|----------------------------------------------------------------------|
G|----------------------------------------------------------------------|
D|----------------------------------------------------------------------|
A|-----------------------------------------------------0-0--(ring out)--|
D|-3h6p3-2-2-2-2-3h6p3-2-2-2-2-3h6p3-2-1-3h6p3-2-2-2-2-0-0--------------|
                                                       .


	Guitar 1 & 2 (3:23-4:02)
e|---------------------------------|
B|---------------------------------|
G|---------------------------------| x11
D|---------------------------------|
A|-0-00001-0-0000-00-00-001-0-0000-|
D|-0-00001-0-0000-00-00-001-0-0000-|
   . ....  . .... .. .. ..  . ....


	Guitar 1 & 2 (4:02-4:31)
e|-----------------------------------------------------------|
B|-----------------------------------------------------------|
G|-----------------------------------------------------------| x5
D|-------------------------------------------------7-6---6-5-|
A|-0-00001-0-0000-00-00-001-0-0000-----------------8-7---7-6-|
D|-0-00001-0-0000-00-00-001-0-0000-00-00-1b----0-0-----0-----|
   . ....  . .... .. .. ..  . .... .. ..       . .     .


	Guitar 1 & 2 (4:31-4:46)
e|---------------------------------|
B|---------------------------------|
G|---------------------------------| x4
D|---------------------------------|
A|-0-00001-0-0000-00-00-001-0-0000-|
D|-0-00001-0-0000-00-00-001-0-0000-|
   . ....  . .... .. .. ..  . ....


	Guitar 1 (4:46-5:16)
e|---------------------------------|
B|---------------------------------|
G|---------------------------------| x8
D|---------------------------------|
A|-0-00001-0-0000-00-00-001-0-0000-|
D|-0-00001-0-0000-00-00-001-0-0000-|
   . ....  . .... .. .. ..  . ....

	Guitar 2 (4:46-5:16)
e|-------0-----4---0-----0---------------0-----4---0-----0----------|
B|-6-------6---------6-----6---5---6-------6---------6-----6---5----|
G|---7-7-----7---7-----7-----7-------7-7-----7---7-----7-----7------|
D|-------------------------------0----------------------------------|
A|------------------------------------------------------------------|
D|------------------------------------------------------------------|

e|---------0-----4---0-----0---------------0-----4---0--------------|
B|---6-------6---------6-----6---5---6---6---6---------6---5-5------|
G|-----7-7-----7---7-----7-----7-------7-------7---7-----7-----6-5--|
D|-0------------------------------0---------------------------------|
A|------------------------------------------------------------------|
D|------------------------------------------------------------------|

e|-----------------------------------------0-----4---0--------------|
B|-----------------------------------6-------6---------6---5-5------|
G|-------------------------------------7-7-----7---7-----7-----6-5--|
D|--------------------------------0---------------------------------|
A|------------------------------------------------------------------|
D|------------------------------------------------------------------|

e|-----------------------------------------0-----4---------0-----4--|
B|-----------------------------------6-------6-------6-------6------|
G|-------------------------------------7-7-----7-------7-7-----7----|
D|--------------------------------0----------------0----------------|
A|------------------------------------------------------------------|
D|------------------------------------------------------------------|





Comments


Popular Lamb Of God tabs & chords
Grace Bass Tabs
As The Palaces Burn Tabs
Faded Line 1 Tabs
Hourglass 4 Tabs
Hourglass 6 Tabs
Now Youve Got Something To Die For Tabs
Omerta Tabs
Purified Tabs
Requiem Tabs
The Passing Tabs


Song lyrics



↑ Back to top | Tablatures and chords are parodies/interpretations of the original songs. You may use it for private study, scholarship, research or language learning purposes only
© 2014 AZChords.com Contact us | Privacy policy | DMCA | Add/correct tabs | Request tabs | Top 50 tabs