» » »

Lamb Of God, Black Label Bass tabs (ver.3)

Artists:  A B C D E F G H I J K L M N O P Q R S T U V W X Y Z # 

Black Label Bass tabs (ver.3)

Lamb Of God Tabs
 Rating:
4/5 (4 votes)
Black Label lessons Tabs too difficult? Try these video lessons and learn fast
1
                drop d

                                                                     
G||---------------------|---------------------|---------------------|
D||---------------------|---------------------|---------------------|
A||---------------------|---------------------|---------------------|
D||--0-0-0--------------|--0--0-0-------------|--0-0-0--------------|


                                                                  
---------------------|---------------------|---------------------|
---------------------|---------------------|---------------------|
---------------------|---------------------|---------------------|
--0--0-0-------------|--0-0-0--------------|--0--0-0-------------|


                                                                               
---------------------|---------------------|----------------------------------|
---------------------|---------------------|----------------------------------|
---------------------|---------------------|----------------------------------|
--0-0-0--------------|--0--0-0-------------|--0-0-0-0-1-0-0-3-0-0-4-0-1-0-3-0-|


                                                                      
----------------------------------|----------------------------------|
----------------------------------|----------------------------------|
----------------------------------|----------------------------------|
--0-0-0-0-1-0-0-3-0-0-4-0-1-0-3-0-|--0-0-0-0-1-0-0-3-0-0-4-0-1-0-3-0-|


                                                                      
----------------------------------|----------------------------------|
----------------------------------|----------------------------------|
----------------------------------|----------------------------------|
--0-0-0-0-1-0-0-3-0-0-4-0-1-0-3-0-|--0-0-0-0-1-0-0-3-0-0-4-0-1-0-3-0-|


                                                                      
----------------------------------|----------------------------------|
----------------------------------|----------------------------------|
----------------------------------|----------------------------------|
--0-0-0-0-1-0-0-3-0-0-4-0-1-0-3-0-|--0-0-0-0-1-0-0-3-0-0-4-0-1-0-3-0-|


                                                                   
----------------------------------|-------------------------------|
----------------------------------|-------------------------------|
----------------------------------|-------------------------------|
--0-0-0-0-1-0-0-3-0-0-4-0-1-0-3-0-|--0-0-0-0-1-0-0-3--4--0--1-1-1-|


                                                                
-------------------------------|-------------------------------|
-------------------------------|-------------------------------|
-------------------------------|-------------------------------|
--0-0-0-0-1-0-0-3--4--0--1-1-1-|--0-0-0-0-1-0-0-3--4--0--1-1-1-|


                                                                
-------------------------------|-------------------------------|
-------------------------------|-------------------------------|
-------------------------------|-------------------------------|
--0-0-0-0-1-0-0-3--4--0--1-1-1-|--0-0-0-0-1-0-0-3--4--0--1-1-1-|


                                                                
-------------------------------|-------------------------------|
-------------------------------|-------------------------------|
-------------------------------|-------------------------------|
--0-0-0-0-1-0-0-3--4--0--1-1-1-|--0-0-0-0-1-0-0-3--4--0--1-1-1-|


                                                         
-------------------------------|------------------------|
-------------------------------|------------------------|
-------------------------------|------------------------|
--0-0-0-0-1-0-0-3--4--0--1-2-3-|--3----3----3----3-4-5--|


                                                          
--------------------------------|------------------------|
--------------------------------|------------------------|
----------7-8-7-8-----5-6-5-6---|------------------------|
--0-0-0-0---------0-0-----------|--3----3----3----3-4-5--|


                                                          
--------------------------------|------------------------|
--------------------------------|------------------------|
----------7-8-7-8-----5-6-5-6---|------------------------|
--0-0-0-0---------0-0-----------|--3----3----3----3-4-5--|


                                                                              
--------------------------------|------------------------|-------------------|
--------------------------------|------------------------|-------------------|
----------7-8-7-8-----5-6-5-6---|------------------------|-------------------|
--0-0-0-0---------0-0-----------|--3----3----3----3-4-5--|--0----------------|


                                                                                
-------------------|-------------------|-------------------|-------------------|
-------------------|-------------------|-------------------|-------------------|
-------------------|-------------------|-------------------|-------------------|
--2----------------|--4----------------|--5----------------|--0----------------|


                                                            
-------------------|-------------------|-------------------|
-------------------|-------------------|-------------------|
-------------------|-------------------|-------------------|
--2----------------|--4----------------|--5----------------|


                                                   
--------------------------------------------------|
--------------------------------------------------|
--------------------------------------------------|
--1-0-0-1-0-0-1-0-0-1-0-0-1-0-0-1-0-0-1-0-0-1-0-0-|


                                                   
--------------------------------------------------|
--------------------------------------------------|
--------------------------------------------------|
--1-0-0-1-0-0-1-0-0-1-0-0-1-0-0-1-0-0-1-0-0-1-0-0-|


                                                                          
------------------------------------|------------------------------------|
------------------------------------|------------------------------------|
------------------------------------|------------------------------------|
--0--0--0--0-0-0-0-0--0--0--0-0-0-0-|--0--0--0--0-0-0-0-0--0--0--0-0-0-0-|


                                                                          
------------------------------------|------------------------------------|
------------------------------------|------------------------------------|
------------------------------------|------------------------------------|
--0--0--0--0-0-0-0-0--0--0--0-0-0-0-|--0--0--0--0-0-0-0-0--0--0--0-0-0-0-|


                                                                          
------------------------------------|------------------------------------|
------------------------------------|------------------------------------|
------------------------------------|------------------------------------|
--0--0--0--0-0-0-0-0--0--0--0-0-0-0-|--0--0--0--0-0-0-0-0--0--0--0-0-0-0-|


                                                                          
------------------------------------|------------------------------------|
------------------------------------|------------------------------------|
------------------------------------|------------------------------------|
--0--0--0--0-0-0-0-0--0--0--0-0-0-0-|--0--0--0--0-0-0-0-0--0--0--0-0-0-0-|


                                                          
------------------------|--------------------------------|
------------------------|--------------------------------|
------------------------|----------7-8-7-8-----5-6-5-6---|
--3----3----3----3-4-5--|--0-0-0-0---------0-0-----------|


                                                          
------------------------|--------------------------------|
------------------------|--------------------------------|
------------------------|----------7-8-7-8-----5-6-5-6---|
--3----3----3----3-4-5--|--0-0-0-0---------0-0-----------|


                                                          
------------------------|--------------------------------|
------------------------|--------------------------------|
------------------------|----------7-8-7-8-----5-6-5-6---|
--3----3----3----3-4-5--|--0-0-0-0---------0-0-----------|


                                                         
------------------------|-------------------------------|
------------------------|-------------------------------|
------------------------|-------------------------------|
--3----3----3----3-4-5--|--0-0-0-0-1-0-0-3--4--0--1-1-1-|


                                                                
-------------------------------|-------------------------------|
-------------------------------|-------------------------------|
-------------------------------|-------------------------------|
--0-0-0-0-1-0-0-3--4--0--1-1-1-|--0-0-0-0-1-0-0-3--4--0--1-1-1-|


                                                                
-------------------------------|-------------------------------|
-------------------------------|-------------------------------|
-------------------------------|-------------------------------|
--0-0-0-0-1-0-0-3--4--0--1-1-1-|--0-0-0-0-1-0-0-3--4--0--1-1-1-|


                                                                
-------------------------------|-------------------------------|
-------------------------------|-------------------------------|
-------------------------------|-------------------------------|
--0-0-0-0-1-0-0-3--4--0--1-1-1-|--0-0-0-0-1-0-0-3--4--0--1-1-1-|


                                                                        
-------------------------------|-------------------|-------------------|
-------------------------------|-------------------|-------------------|
-------------------------------|-------------------|-------------------|
--0-0-0-0-1-0-0-3--4--0--1-2-3-|--0----------------|--2----------------|


                                                                                
-------------------|-------------------|-------------------|-------------------|
-------------------|-------------------|-------------------|-------------------|
-------------------|-------------------|-------------------|-------------------|
--4----------------|--5----------------|--0----------------|--2----------------|


                                                                               
-------------------|-------------------|-------------------|------------------|
-------------------|-------------------|-------------------|------------------|
-------------------|-------------------|-------------------|------------------|
--4----------------|--5----------------|--0----------------|------------------|


                                                                            
------------------|------------------|------------------|------------------|
------------------|------------------|------------------|------------------|
------------------|------------------|------------------|------------------|
------------------|------------------|------------------|------------------|


                                                                            
------------------|------------------|------------------|------------------|
------------------|------------------|------------------|------------------|
------------------|------------------|------------------|------------------|
------------------|------------------|------------------|------------------|


                                                         
------------------|------------------|------------------|
------------------|------------------|------------------|
------------------|------------------|------------------|
------------------|------------------|------------------|


                                                                           
------------------------|------------------------|------------------------|
------------------------|------------------------|------------------------|
------------------------|------0--0------4--4----|------------------------|
--0---0---0---3--3--3---|--0----------0----------|--0---0---0---3--3--3---|


                                                                           
------------------------|------------------------|------------------------|
------------------------|------------------------|------------------------|
------0--0------4--4----|------------------------|------0--0------4--4----|
--0----------0----------|--0---0---0---3--3--3---|--0----------0----------|


                                                                           
------------------------|------------------------|------------------------|
------------------------|------------------------|------------------------|
------------------------|------0--0------4--4----|------------------------|
--0---0---0---3--3--3---|--0----------0----------|--0---0---0---3--3--3---|


                                                                           
------------------------|------------------------|------------------------|
------------------------|------------------------|------------------------|
------0--0------4--4----|------------------------|------0--0------4--4----|
--0----------0----------|--0---0---0---3--3--3---|--0----------0----------|


                                                                           
------------------------|------------------------|------------------------|
------------------------|------------------------|------------------------|
------------------------|------0--0------4--4----|------------------------|
--0---0---0---3--3--3---|--0----------0----------|--0---0---0---3--3--3---|


                                                                           
------------------------|------------------------|------------------------|
------------------------|------------------------|------------------------|
------0--0------4--4----|------------------------|------0--0------4--4----|
--0----------0----------|--0---0---0---3--3--3---|--0----------0----------|


                                                                      
------------------------|------------------------|------------------||
------------------------|------------------------|------------------||
------------------------|------0--0------4--4----|------------------||
--0---0---0---3--3--3---|--0----------0----------|------------------||
            
Submit corrections

comments powered by Disqus
↑ Back to top | Lamb Of God Bass for Black Label. Lyrics for acoustic guitar and electric guitar. 1 Tablatures and chords are parodies/interpretations of the original songs. You may use it for private study, scholarship, research or language learning purposes only