» » »

Black Label Bass tabs (ver.2)

Artists:  A B C D E F G H I J K L M N O P Q R S T U V W X Y Z # 

Black Label Bass tabs (ver.2)

Lamb Of God
Rating:
0/5 (0 votes)

Hard to play? Try these video lessons and learn fast.
                Tuning:
F
C
G
C


Riff 1
[----------------]
[----------------]
[----------------]
[-0-0-0---0--0-0-]

Riff 2
[---------------------------------]
[---------------------------------]
[---------------------------------]
[-0-0-0-0-1p0-0-3p0-4p0-3p0-0-1p0-]

Riff 3
[---------------------------------]
[---------------------------------]
[-----------------------------5/6-]
[-0-0-0-0-1p0-0-3p0-4p0-3p0-0-----]

Riff 4
[---------------------------]
[---------------------------]
[---------------------------]
[-1-0-3~~-1-0-3~~-3-0-2-3-5-]

Riff 5
[-----------------------------------]
[-----------------------------------]
[----------7/8-7--------5/6-5-------]
[-0-0-0-0----------0-0-0-------3--2-]

Riff 6
[-----------------]
[-----------------]
[-----------------]
[-000-000-000-000-]

Riff 7
[-----------------------------]
[-----------------------------]
[-----------------------------]
[-00-00-00-0000-00-00-00-0000-]

Riff 8
[-------------------------]
[-------------------------]
[-------6-6-6---------4-4-]
[-0-0-0-------0-7-7-0-----]
            
Hard to play? Try these video lessons and learn fast. | Correct




comments powered by Disqus
↑ Back to top | Tablatures and chords are parodies/interpretations of the original songs. You may use it for private study, scholarship, research or language learning purposes only