» » »

Black Label Bass tabs (ver.1)

Artists:  A B C D E F G H I J K L M N O P Q R S T U V W X Y Z # 

Black Label Bass tabs (ver.1)

Lamb Of God
Rating:
0/5 (0 votes)

Hard to play? Try these video lessons and learn fast.
                Guitar plays first, then bass comes in with guitar 2
Intro         4x
G---------------
D---------------
A---------------
D-0-0-0---0--0-0

cont...                        8x
G--------------------------------
D--------------------------------
A--------------------------------
D-0-0-1p0-3p0-0-1p0-4p0-3p0-0-1p0

Verse
G---------------------------------
D---------------------------------
A----------------------------5h6-5
D-0-0-1p0-3p0-0-1p0-4p0-3p0-------

G---------------------------------
D---------------------------------
A----------------------------7h8-7
D-0-0-1p0-3p0-0-1p0-4p0-3p0-------

Play Verse figure 4x in total

Chorus                                                  4x
G---------------------------------------------------------
D---------------------------------------------------------
A----------------------------------------5h6p5-------7h8p7
D-1p0-3p0-0-1p0-3p0-0-1p0-3h4---0-0-0-0--------0-0-0------
                                            
Chorus Part 2              8x
G----------------------------
D----------------------------
A----------5h6p5--------7h8p7
D-0-0-0-0--------0-0-0-------

Bridge
G-------
D-------  speed up the 0's as needed
A-------
D-0-0-0-

Chorus

Verse

Chorus Part 2 (hold last 0)

Ending                             
G--------------------------------
D--------------------------------
A----------6--6--6----0--0---4--4
D-0--0--0-----------0------0-----

Play Ending until fade-out....
            
Hard to play? Try these video lessons and learn fast. | Correct




comments powered by Disqus
↑ Back to top | Tablatures and chords are parodies/interpretations of the original songs. You may use it for private study, scholarship, research or language learning purposes only